Verse Riff
-------------------------------0----------------------------------0-----0-----
-------------------------3-------3-----3------------------2-2-----0---0---0---
-6---6---6----6/7/6--------2-------2---2----4/5/4-2---2---2---2---1-1---------
-7-7---7-5----------5--4-----4-------4-3--3---------4---4-2-----2-2-----------
-7-------7--7-------7-------------------------------------0-------2-----------
------------------------------------------------------------------0-----------

-----------0------------------------------------------------------------------
-----3-------3---2------------------------------------------------------------
-1-----2-------2-2------------------------------------------------------------
---0-----0-------2------------------------------------------------------------
-----------------0------------------------------------------------------------
------------------------------------------------------------------------------

Chorus Riff
-2-2-2-2-2-2--1-1-1-1-1-1--0-0-0-0-0-0--4-4-4-4-4-4--5-5-5-5-5-5--6-6-6-6-6---
-2-2-2-2-2-2--1-1-1-1-1-1--2-2-2-2-2-2--6-6-6-6-6-6--7-7-7-7-7-7--8-8-8-8-8---
-2-2-2-2-2-2--2-2-2-2-2-2--2-2-2-2-2-2--6-6-6-6-6-6--7-7-7-7-7-7--8-8-8-8-8---
-4-4-4-4-4-4--3-3-3-3-3-3--2-2-2-2-2-2--6-6-6-6-6-6--7-7-7-7-7-7--8-8-8-8-8---
-4-4-4-4-4-4--3-3-3-3-3-3--0-0-0-0-0-0--4-4-4-4-4-4--5-5-5-5-5-5--6-6-6-6-6---
-2-2-2-2-2-2--1-1-1-1-1-1---------------4-4-4-4-4-4--5-5-5-5-5-5--6-6-6-6-6---

-6-7-7-7-7-7-7-7--------------------------------------------------------------
-8-9-9-9-9-9-9-9--------------------------------------------------------------
-8-9-9-9-9-9-9-9--------------------------------------------------------------
-8-9-9-9-9-9-9-9--------------------------------------------------------------
-6-7-7-7-7-7-7-7--------------------------------------------------------------
-6-7-7-7-7-7-7-7-------------------------------------------------------------


Текст, аккорды и табулатура для песни "Falling Down", исполняет "Muse".
Используемые в песне аккорды можно найти в разделе Как брать аккорды. Аккорды для шестиструнной гитары. Другие песни можно найти на нашем сайте, воспользовавшись алфавитным указателем вверху страницы.


Слушать онлайн Falling Down


MuseFalling Down на Яндекс.Музыке


 
Ошибка в тексте? Выделите ошибку и нажмите Ctrl+Enter