Song: White Wedding Cover
Artist: Murderdolls
Tabbed by: Jonathan Brooks AKA (sic) Breed

Song is practically all powerchords played at speed, not as good as the
original Billy Idol version but hey, Itz metal!!
Enjoi!!


Intro riff

E|2-----------2--------------2-----------2-----5----4------
B|--3-------3---3--5----3------3-------3---3-------------0-
G|----4---4----------------------4---4---------------------
D|------4--------------------------4-----------------------
A|---------------------------------------------------------
E|---------------------------------------------------------


Chorus

E|-------------------------------------------
B|-------------------------------------------
G|-2---------4-4-4-4-4-4-4-4-4-4-4-4-4-4-4-4-
D|-2----2----4-4-4-4-4-4-4-4-4-4-4-4-4-4-4-4-
A|-0----2----2-2-2-2-2-2-2-2-2-2-2-2-2-2-2-2-
E|------0------------------------------------

E|-------------------------------------------
B|-------------------------------------------
G|-2----2----4-4-4-4-4-4-4-4-4-4-4-4-4-4-4-4-
D|-2----0----4-4-4-4-4-4-4-4-4-4-4-4-4-4-4-4-
A|-0---------2-2-2-2-2-2-2-2-2-2-2-2-2-2-2-2-
E|-------------------------------------------

E|-------------------------------------------
B|-------------------------------------------
G|-2---------4-4-4-4-4-4-4-4-4-4-4-4-4-4-4-4-
D|-2----2----4-4-4-4-4-4-4-4-4-4-4-4-4-4-4-4-
A|-0----2----2-2-2-2-2-2-2-2-2-2-2-2-2-2-2-2-
E|------0------------------------------------

Verse 

E|-----------------------------------------------------------------
B|-----------------------------------------------------------------
G|-4-4-4-4-4-4-4-4-4-4-4-4-4-4-4-4-2-2-2-2-2-2-2-2-----------------
D|-4-4-4-4-4-4-4-4-4-4-4-4-4-4-4-4-2-2-2-2-2-2-2-2-2-2-2-2-2-2-2-2-
A|-2-2-2-2-2-2-2-2-2-2-2-2-2-2-2-2-0-0-0-0-0-0-0-0-2-2-2-2-2-2-2-2-
E|-------------------------------------------------0-0-0-0-0-0-0-0-

E|-----------------------------------------------------------------
B|-----------------------------------------------------------------
G|-4-4-4-4-4-4-4-4-4-4-4-4-4-4-4-4-2-2-2-2-2-2-2-2-----------------
D|-4-4-4-4-4-4-4-4-4-4-4-4-4-4-4-4-2-2-2-2-2-2-2-2-2-2-2-2-2-2-2-2-
A|-2-2-2-2-2-2-2-2-2-2-2-2-2-2-2-2-0-0-0-0-0-0-0-0-2-2-2-2-2-2-2-2-
E|-------------------------------------------------0-0-0-0-0-0-0-0-

E|-----------------------------------------------------------------
B|-----------------------------------------------------------------
G|-4-4-4-4-4-4-4-4-4-4-4-4-4-4-4-4-2-2-2-2-2-2-2-2-2-2-2-2-2-2-2-2-
D|-4-4-4-4-4-4-4-4-4-4-4-4-4-4-4-4-2-2-2-2-2-2-2-2-2-2-2-2-2-2-2-2-
A|-2-2-2-2-2-2-2-2-2-2-2-2-2-2-2-2-0-0-0-0-0-0-0-0-0-0-0-0-0-0-0-0-
E|-----------------------------------------------------------------


E|---------------------------------
B|---------------------------------
G|-4-4-4-4-4-4-4-4-4-4-4-4-4-4-4-4-
D|-4-4-4-4-4-4-4-4-4-4-4-4-4-4-4-4-
A|-2-2-2-2-2-2-2-2-2-2-2-2-2-2-2-2-
E|---------------------------------


Chorus

E|-------------------------------------------
B|-------------------------------------------
G|-2---------4-4-4-4-4-4-4-4-4-4-4-4-4-4-4-4-
D|-2----2----4-4-4-4-4-4-4-4-4-4-4-4-4-4-4-4-
A|-0----2----2-2-2-2-2-2-2-2-2-2-2-2-2-2-2-2-
E|------0------------------------------------

E|-------------------------------------------
B|-------------------------------------------
G|-2----2----4-4-4-4-4-4-4-4-4-4-4-4-4-4-4-4-
D|-2----0----4-4-4-4-4-4-4-4-4-4-4-4-4-4-4-4-
A|-0---------2-2-2-2-2-2-2-2-2-2-2-2-2-2-2-2-
E|-------------------------------------------

E|-------------------------------------------
B|-------------------------------------------
G|-2---------4-4-4-4-4-4-4-4-4-4-4-4-4-4-4-4-
D|-2----2----4-4-4-4-4-4-4-4-4-4-4-4-4-4-4-4-
A|-0----2----2-2-2-2-2-2-2-2-2-2-2-2-2-2-2-2-
E|------0------------------------------------

Solo

E|2-----------2--------------2-----------2-----5----4------
B|--3-------3---3--5----3------3-------3---3-------------0-
G|----4---4----------------------4---4---------------------
D|------4--------------------------4-----------------------
A|---------------------------------------------------------
E|---------------------------------------------------------

E|2-----------2---2-------------2---2-----------2---5---4-----
B|--3-------3---3----3--------3---3---3-------3---3---------0-
G|----4---4-------------4---4-----------4---4-----------------
D|------4-----------------4---------------4-------------------
A|------------------------------------------------------------
E|------------------------------------------------------------

Verse

E|-------------------------------------------
B|-------------------------------------------
G|-2---------4-4-4-4-4-4-4-4-4-4-4-4-4-4-4-4-
D|-2----2----4-4-4-4-4-4-4-4-4-4-4-4-4-4-4-4-
A|-0----2----2-2-2-2-2-2-2-2-2-2-2-2-2-2-2-2-
E|------0------------------------------------







E|---------------------------------
B|---------------------------------
G|-4-----4-----4-----4-----4-------
D|-4-----4-----4-----4-----4-------
A|-2-----2-----2-----2-----2-------
E|---------------------------------


Chorus

E|-------------------------------------------
B|-------------------------------------------
G|-2---------4-4-4-4-4-4-4-4-4-4-4-4-4-4-4-4-
D|-2----2----4-4-4-4-4-4-4-4-4-4-4-4-4-4-4-4-
A|-0----2----2-2-2-2-2-2-2-2-2-2-2-2-2-2-2-2-
E|------0------------------------------------

E|-------------------------------------------
B|-------------------------------------------
G|-2----2----4-4-4-4-4-4-4-4-4-4-4-4-4-4-4-4-
D|-2----0----4-4-4-4-4-4-4-4-4-4-4-4-4-4-4-4-
A|-0---------2-2-2-2-2-2-2-2-2-2-2-2-2-2-2-2-
E|-------------------------------------------

E|-------------------------------------------
B|-------------------------------------------
G|-2---------4-4-4-4-4-4-4-4-4-4-4-4-4-4-4-4-
D|-2----2----4-4-4-4-4-4-4-4-4-4-4-4-4-4-4-4-
A|-0----2----2-2-2-2-2-2-2-2-2-2-2-2-2-2-2-2-
E|------0------------------------------------

E|-------------------------------------------
B|-------------------------------------------
G|-2----2----4-4-4-4-4-4-4-4-4-4-4-4-4-4-4-4-
D|-2----0----4-4-4-4-4-4-4-4-4-4-4-4-4-4-4-4-
A|-0---------2-2-2-2-2-2-2-2-2-2-2-2-2-2-2-2-
E|-------------------------------------------

E|-------------------------------------------
B|-------------------------------------------
G|-2---------4-4-4-4-4-4-4-4-4-4-4-4-4-4-4-4-
D|-2----2----4-4-4-4-4-4-4-4-4-4-4-4-4-4-4-4-
A|-0----2----2-2-2-2-2-2-2-2-2-2-2-2-2-2-2-2-
E|------0------------------------------------

Ending, Outro

Palm mute

E|-------------------------------------------
B|-------------------------------------------
G|--4-4-4-4-4-4-4-4-4-4-4-4-4-4-4-4----------
D|--4-4-4-4-4-4-4-4-4-4-4-4-4-4-4-4----------
A|--2-2-2-2-2-2-2-2-2-2-2-2-2-2-2-2----------


Текст, аккорды и табулатура для песни "White Wedding", исполняет "Murderdolls".
Используемые в песне аккорды можно найти в разделе Как брать аккорды. Аккорды для шестиструнной гитары. Другие песни можно найти на нашем сайте, воспользовавшись алфавитным указателем вверху страницы.


 
Ошибка в тексте? Выделите ошибку и нажмите Ctrl+Enter