Song : White wedding              This is perfect...i watched joey play it on 
Artist : Murderdolls                                       Top of the pops.
Tuning : E A D G B E (standard)

(small pleccy slide)

E|-------------------------------|--------------
A|-------------9-----------------|--------------
D|------12--9-----9--12------12--|--------------             I
G|--12-------------------11------|--9--->7--->--
B|-------------------------------|--------------             N
E|-------------------------------|--------------
                                                             T
E|-------------------------------|--------------
A|--                           --|--------------             R
D|--            ./             --|-------------- 
G|--            /.             --|--14-->13-->--             O
B|--                           --|--------------
E|-------------------------------|--------------

(bass and drums and guitar 2 part)

E|-------------------0-0-0-0-0-0-0-0-------------------------------------
A|--0-0-0-0-0-0-0-0--2-2-2-2-2-2-2-2--2-2-2-2-2-2-2-2-2-2-2-2-2-2-2-2-2--
D|--2-2-2-2-2-2-2-2-------------------4-4-4-4-4-4-4-4-4-4-4-4-4-4-4-4-4--
G|-----------------------------------------------------------------------
B|-----------------------------------------------------------------------
E|-----------------------------------------------------------------------

E|--0-0-0-0-0-0-0-0------------------------------------------------------
A|--2-2-2-2-2-2-2-2--5-5-5-5-5-5-5-5--2-2-2-2-2-2-2-2-2-2-2-2-2-2-2-2-2--
D|-------------------7-7-7-7-7-7-7-7--4-4-4-4-4-4-4-4-4-4-4-4-4-4-4-4-4--
G|-----------------------------------------------------------------------
B|-----------------------------------------------------------------------
E|-----------------------------------------------------------------------

E|--0-0-0-0-0-0-0-0------------------------------------------------------
A|--2-2-2-2-2-2-2-2--5------------->--2-2-2-2-2-2-2-2-2-2-2-2-2-2-2-2-2--
D|-------------------7------------->--4-4-4-4-4-4-4-4-4-4-4-4-4-4-4-4-4--
G|-----------------------------------------------------------------------
B|-----------------------------------------------------------------------
E|-----------------------------------------------------------------------

    _________________________________pm________________________________
E|------------------------------------------------------0-0-0-0-0-0-0-0--
A|--2-2-2-2-2-2-2-2-2-2-2-2-2-2-2-2-2--0-0-0-0-0-0-0-0--2-2-2-2-2-2-2-2--
D|--4-4-4-4-4-4-4-4-4-4-4-4-4-4-4-4-4--2-2-2-2-2-2-2-2-------------------   X4 
G|-----------------------------------------------------------------------    
B|-----------------------------------------------------------------------
E|-----------------------------------------------------------------------
         (on the 4th time dont play the last part)  -  |_______________|

E|--0-0-0-0-0-0-0-0------------------------------------------------------
A|--2-2-2-2-2-2-2-2--5-5-5-5-5-5-5-5--2-2-2-2-2-2-2-2-2-2-2-2-2-2-2-2-2--
D|-------------------7-7-7-7-7-7-7-7--4-4-4-4-4-4-4-4-4-4-4-4-4-4-4-4-4--
G|-----------------------------------------------------------------------
B|-----------------------------------------------------------------------
E|-----------------------------------------------------------------------

E|--0-0-0-0-0-0-0-0------------------------------------------------------
A|--2-2-2-2-2-2-2-2--5-5-5-5-5-5-5-5--2-2-2-2-2-2-2-2-2-2-2-2-2-2-2-2-2--
D|-------------------7-7-7-7-7-7-7-7--4-4-4-4-4-4-4-4-4-4-4-4-4-4-4-4-4--
G|-----------------------------------------------------------------------
B|-----------------------------------------------------------------------
E|-----------------------------------------------------------------------

E|--0-0-0-0-0-0-0-0------------------------------------------------------
A|--2-2-2-2-2-2-2-2--5------------->--2-2-2-2-2-2-2-2-2-2-2-2-2-2-2-2-2--
D|-------------------7------------->--4-4-4-4-4-4-4-4-4-4-4-4-4-4-4-4-4--
G|-----------------------------------------------------------------------
B|-----------------------------------------------------------------------
E|-----------------------------------------------------------------------


E|-------------------------------|--------------
A|-------------9-----------------|--------------
D|------12--9-----9--12------12--|--------------             
G|--12-------------------11------|--9--->7--->--
B|-------------------------------|--------------             
E|-------------------------------|--------------
                                                             
E|-------------------------------|              |--------------
A|-------------9-----------------|              |--------------
D|------12--9-----9--12------12--| This Part x3 |--------------      
G|--12-------------------11------|              |--14-->13-->--
B|-------------------------------|    Then...   |--------------
E|-------------------------------|              |--------------


E|-------------------0-0-0-0-0-0-0-0-------------------------------------
A|--0-0-0-0-0-0-0-0--2-2-2-2-2-2-2-2--2-2-2-2-2-2-2-2-2-2-2-2-2-2-2-2-2--
D|--2-2-2-2-2-2-2-2-------------------4-4-4-4-4-4-4-4-4-4-4-4-4-4-4-4-4--
G|-----------------------------------------------------------------------
B|-----------------------------------------------------------------------
E|-----------------------------------------------------------------------


E|----------
A|--2-->^2--
D|----------  X5   THEN PAUSE.
G|--4-->^4--
B|----------
E|----------


E|--0-0-0-0-0-0-0-0------------------------------------------------------
A|--2-2-2-2-2-2-2-2--5-5-5-5-5-5-5-5--2-2-2-2-2-2-2-2-2-2-2-2-2-2-2-2-2--
D|-------------------7-7-7-7-7-7-7-7--4-4-4-4-4-4-4-4-4-4-4-4-4-4-4-4-4--
G|-----------------------------------------------------------------------
B|-----------------------------------------------------------------------
E|-----------------------------------------------------------------------

E|--0-0-0-0-0-0-0-0------------------------------------------------------
A|--2-2-2-2-2-2-2-2--5-5-5-5-5-5-5-5--2-2-2-2-2-2-2-2-2-2-2-2-2-2-2-2-2--
D|-------------------7-7-7-7-7-7-7-7--4-4-4-4-4-4-4-4-4-4-4-4-4-4-4-4-4--
G|-----------------------------------------------------------------------
B|-----------------------------------------------------------------------
E|-----------------------------------------------------------------------

E|--0-0-0-0-0-0-0-0------------------------------------------------------
A|--2-2-2-2-2-2-2-2--5-5-5-5-5-5-5-5--2-2-2-2-2-2-2-2-2-2-2-2-2-2-2-2-2--
D|-------------------7-7-7-7-7-7-7-7--4-4-4-4-4-4-4-4-4-4-4-4-4-4-4-4-4--
G|-----------------------------------------------------------------------
B|-----------------------------------------------------------------------
E|-----------------------------------------------------------------------
                                      __________________pm___________________
E|--0-0-0-0-0-0-0-0------------------------------------------------------------
A|--2-2-2-2-2-2-2-2--5------------->--2-2-2-2-2-2-2-2-2-2-2-2-2-2-2-2-2-2-2-2--
D|-------------------7------------->--4-4-4-4-4-4-4-4-4-4-4-4-4-4-4-4-4-4-4-4--
G|------------------------------------------Carry this on 4 ages---------------
B|-----------------------------------------------------------------------------
E|-----------------------------------------------------------------------------


Текст, аккорды и табулатура для песни "White Wedding", исполняет "Murderdolls".
Используемые в песне аккорды можно найти в разделе Как брать аккорды. Аккорды для шестиструнной гитары. Другие песни можно найти на нашем сайте, воспользовавшись алфавитным указателем вверху страницы.


 
Ошибка в тексте? Выделите ошибку и нажмите Ctrl+Enter