here's another good one by the murderdolls i hope my last one helped any one that needed it.

Tuning(low to high) E A D G B E



Intro (both guitars)
E------------------------------------------|    |-------------
B------------------------------------------|4th |-------------
G-2-4/5----2-4/5---------------------------|time|-------------
D-2-4/5-2--2-4/5-2--4----------------------|    |-------------
A-0-2/3-2--0-2/3-2--4-4-4-4-4-4-4-4-4-4-4--|    |-4-4--4-4--2-into verse
E-------0--------0--2-0-2-0-2-0-2-0-2-0-2--|    |-2-2--2-2--0-

Verse (guitar 1)
E-------------------------------------------
B-------------------------------------------
G-------------------------------------------
D-2>---------4>---------2>----------------2-
A-2>---------4>---------2>--5/4-5/4-5/4-5/2-
E-0>---2-3-5-2>---2-3-2-0>--3/2-3/2-3/2-3/0-
      PM--|     PM--|

Verse (guitar 2) i think  the guitar has a wah-wah on.
E------------------------------------------
B------------------------------------------
G-9t-9-11-12-11t-11-12--9t-----------------
D------------------------------------------
A--------------------------5/4-5/4-5/4-5/2-
E--------------------------3/2-3/2-3/2-3/0-

Chorus
E------------------------------------------|    |----------------
B------------------------------------------|2nd |----------------
G-2-4/5----2-4/5---------------------------|time|----------------
D-2-4/5-2--2-4/5-2--4----------------------|    |----------------
A-0-2/3-2--0-2/3-2--4-4-4-4-4-4-4-4-4-4-4--|    |-4-4--4-4--2----into verse
E-------0--------0--2-0-2-0-2-0-2-0-2-0-2--|    |-2-2--2-2--0----

Solo
E----------------------------------------------------------------
B-12-------------------------------------------------------------
G-14B16--14-13-12------------------------------------------------
D-----------------14-13-12---------------------------------------
A--------------------------14--12H13-12-10-----------------------
E------------------------------------------12-RANDOM-SLIDES------
         P.H--------------------------------|

E----------------------------------------------------------------
B----------------------------------------------------------------
G-9-8-7------------------------------------------------12-13-----
D-------9-8-7----------------------------------12-13-14----------
A-------------9-8-7-------------------12-13-14-------------------
E-------------------9-8-9-10-12-13-14----------------------------

E----------------------------------------------------------------
B-------12H15P12-------12H15P12-------12H15P12-------12H15P12----
G-14B16----------14B16----------14B16----------14B16-------------
D----------------------------------------------------------------
A----------------------------------------------------------------
E----------------------------------------------------------------

E--------------------------------------------------12H14H15P14P12
B-0-2-3-0-3-4-0-4-5-0-5-6-0-6-7-0-7-8------12H14H15--------------
G---------------------------------------14-----------------------
D----------------------------------------------------------------
A----------------------------------------------------------------
E----------------------------------------------------------------
 T----------------------------------|

E-------------12H14H15P14P12--------------------12H14H15P14P12---
B----12H14H15---------------15P14P12----12H14H15-----------------
G-14---------------------------------14--------------------------
D----------------------------------------------------------------
A----------------------------------------------------------------
E----------------------------------------------------------------

E--------------------------------------12H14H15-15B18R15P12-14>--
B-15P14P12--------------------12H14H15---------------------------
G----------14---------12H14H15-----------------------------------
D-------------12H13H14-------------------------------------------
A----------------------------------------------------------------
E----------------------------------------------------------------

E-12>-----------------------
B------14>------------------
G-----------11>-------------
D---------------------------
A---------------------------
E---------------------------

Bit After Solo( mother....fucker....i don't care)
E---------------------------
B---------------------------
G---------------------------
D---------------------------
A-4-4---4-4--4-4/7-7--------
E-2-2---2-2--2-2/5-5--------

there you go the solo was a pain in the ass and i havn't tabbed it totally correct but it's a
start.


Текст, аккорды и табулатура для песни "Motherfucker I Dont Care", исполняет "Murderdolls".
Используемые в песне аккорды можно найти в разделе Как брать аккорды. Аккорды для шестиструнной гитары. Другие песни можно найти на нашем сайте, воспользовавшись алфавитным указателем вверху страницы.


 
Ошибка в тексте? Выделите ошибку и нажмите Ctrl+Enter