/=slide b=bend p=pulloff h=hammeron v=vibrato (tuned in E A D G B e)

-------------------------------------------------------------------------------
-------------------------------------------------------------------------------
-----------------7-------------------------------------------------------------
-------------5-7---7-7-7/9-5--5-7-5--3-5-3--3h2--------------------------------
-1/3--3/5--7------------------------------------3--5-7-5--3-5-3----------------
----------------------------------------------------------------1b-------------


-------------------------------------5p8-5p7-5p8-5p7--8h5----------------------
---------------------------5--5/10-8----------------------8h5------------------
-----------------5v---5-7-------------------------------------7-7h5------------
-------------5-7----------------------------------------------------7h5--------
-1/3--3/5--7------------------------------------------------------------7-3/5-3
-------------------------------------------------------------------------------

submited by Mr. Hairy Belly


Текст, аккорды и табулатура для песни "Love At First Fright (solo ver 2)", исполняет "Murderdolls".
Используемые в песне аккорды можно найти в разделе Как брать аккорды. Аккорды для шестиструнной гитары. Другие песни можно найти на нашем сайте, воспользовавшись алфавитным указателем вверху страницы.


 
Ошибка в тексте? Выделите ошибку и нажмите Ctrl+Enter