Artist: Murderdolls
Title: Love at First Fright
Album: Beyond the Valley of the Murderdolls
Tabber:dave
Email: [email protected]

Standard Tuning


Riff 1:
------------------------------------------------------------------------------
------------------------------------------------------------------------------
------------------------------------------------------------------------------
-5~~--------------------------------------------------------------------------
-3~~-5~~-7~~-3--3-3-3-3-3-3-5-5-5-5-5-5-5-------------------------------------
-----3~~-5~~-1--1-1-1-1-1-1-3-3-3-3-3-3-3-------------------------------------
                PM.......................                                     


Riff 2:
------------------------------------------------------------------------------
------------------------------------------------------------------------------
------------------------------------------------------------------------------
-5-5-5-5-5-5-5-5--------------------------------------------------------------
-3-3-3-3-3-3-3-3-5-5-5-5-5-5-5-5-7-7-7-7-7-7-7-7-3-3-3-3-5-5-5-5--------------
-----------------3-3-3-3-3-3-3-3-5-5-5-5-5-5-5-5-1-1-1-1-3-3-3-3--------------
                                                                              


Riff 3:
---------------x-x-x-x-x-x----------------------------------------------------
---------------x-x-x-x-x-x----------------------------------------------------
---------------x-x-x-x-x-x----------------------------------------------------
---------------x-x-x-x-x-x----------------------------------------------------
-3--3--3-3-3-5-x-x-x-x-x-x----------------------------------------------------
-1--1--1-1-1-3-x-x-x-x-x-x----------------------------------------------------
                                                                              


Riff 4:
------------------------------------------------------------------------------
------------------------------------------------------------------------------
------------------------------------------------------------------------------
------------------------------------------------------------------------------
-3--3-3-3-3-3-3-5-5-5-5-5-5-5-------------------------------------------------
-1--1-1-1-1-1-1-3-3-3-3-3-3-3-------------------------------------------------
    PM.......................                                                 


Riff 5:
------------------------------------------------------------------------------
------------------------------------------------------------------------------
------------------------------------------------------------------------------
-5-5-5-5-5-5-5-5--------------------------------------------------------------
-3-3-3-3-3-3-3-3-5-5-5-5-5-5-5-5-7-7-7-7-7-7-7-7-3-3-3-3-5-5-5-5--------------
-----------------3-3-3-3-3-3-3-3-5-5-5-5-5-5-5-5-1-1-1-1-3-3-3-3--------------
 Gtr 1                                                                        

-8---7---5---3---8---7---5---3---8---7---5---3---1-------3--------------------
------------------------------------------------------------------------------
------------------------------------------------------------------------------
------------------------------------------------------------------------------
------------------------------------------------------------------------------
------------------------------------------------------------------------------
 Gtr 2. tremelo picking
                                                                      


Riff 6:
------------------------------------------------------------------------------
------------------------------------------------------------------------------
------------------------------------------------------------------------------
------------------------------------------------------------------------------
-10-x-x-10-x-10-10-x-10-x-x-10-x-x-10-x-x-10-12-11-10-------------------------
-8--x-x-8--x-8--8--x-8--x-x-8--x-x-8--x-x-8--10-9--8--------------------------
                                                                              


Riff 7:
------------------------------------------------------------------------------
------------------------------------------------------------------------------
------------------------------------------------------------------------------
------------------------------------------------------------------------------
-10-x-x-10-x-10-10-x-10-x-x-5-x-x-5-x-5-5-x-5-x-x-7-x-x-7-x-7-7-x-7-x-x-3-x---
-8--x-x-8--x-8--8--x-8--x-x-3-x-x-3-x-3-3-x-3-x-x-5-x-x-5-x-5-5-x-5-x-x-1-x---
                                                                              

------------------------------------------------------------------------------
------------------------------------------------------------------------------
------------------------------------------------------------------------------
------------------------------------------------------------------------------
-x-3-x-x-5-5-5-5-5-5-5-5------------------------------------------------------
-x-1-x-x-3-3-3-3-3-3-3-3------------------------------------------------------
                                                                              


Riff 8:
------------------------------------------------------------------------------
------------------------------------------------------------------------------
------------------------------------------------------------------------------
------------------------------------------------------------------------------
-3--3-3-3-3-3-3-5~~-----------------------------------------------------------
-1--1-1-1-1-1-1-3~~----->>>>>>>>>-PICK-SCRAPE->>>>>>>>>-----------------------
                                                                              


Riff 9:
------------------------------------------------------------------------------
------------------------------------------------------------------------------
------------------------------------------------------------------------------
-5-5-5-5-5-5-5-5--------------------------------------------------------------
-3-3-3-3-3-3-3-3-5-5-5-5-5-5-5-5-7-7-7-7-7-7-7-7-3-3-3-3-5-5-5-5--------------
-----------------3-3-3-3-3-3-3-3-5-5-5-5-5-5-5-5-1-1-1-1-3-3-3-3--------------
                                                                              

------------------------------------------------------------------------------
------------------------------------------------------------------------------
------------------------------------------------------------------------------
-5-5-5-5-5-5-5-5--------------------------------------------------------------
-3-3-3-3-3-3-3-3-5-5-5-5-5-5-5-5-7-7-7-7-7-7-7-7-3-3-3-3--3-3-3-3--5-5-5-5----
-----------------3-3-3-3-3-3-3-3-5-5-5-5-5-5-5-5-1-1-1-1--1-1-1-1--3-3-3-3----
                                                                              

------------------------------------------------------------------------------
------------------------------------------------------------------------------
------------------------------------------------------------------------------
----------5~~------------------------------------5----------------------------
-5-5-5-5--3~~------------------------------------3----------------------------
-3-3-3-3------->>>>>>>>>-PICK-SCRAPE->>>>>>>>>--------------------------------


Текст, аккорды и табулатура для песни "Love At First Fright", исполняет "Murderdolls".
Используемые в песне аккорды можно найти в разделе Как брать аккорды. Аккорды для шестиструнной гитары. Другие песни можно найти на нашем сайте, воспользовавшись алфавитным указателем вверху страницы.


 
Ошибка в тексте? Выделите ошибку и нажмите Ctrl+Enter