Song: Trapped in the Wake of a Dream
Band: Mudvayne

Tuning:
F
C        s=slap  p=pluck   t=tap (downward pluck)
G
C

  Intro  (for this part, mute all the strings and just hit your hand flat against em)
[-----------------------------------------------------------------] like in cradle
[X-X-X---X-X---X-X---X-X-X-X---X-X-X-X-X---X-X---X-X---X-X-X---X-X]
[X-X-X---X-X---X-X---X-X-X-X---X-X-X-X-X---X-X---X-X---X-X-X---X-X]
[X-X-X---X-X---X-X---X-X-X-X---X-X-X-X-X---X-X---X-X---X-X-X---X-X]   rpt

[-----------------------------------------------------------------]
[X-X-X---X-X---X-X---X-X-X-X---X-X-X-X-X---X-X---X-X---X-X-X------]
[X-X-X---X-X---X-X---X-X-X-X---X-X-X-X-X---X-X---X-X---X-X-X------]
[X-X-X---X-X---X-X---X-X-X-X---X-X-X-X-X---X-X---X-X---X-X-X---1-1]

 Chorus
[--------------------------------------------------------------------]
[------------------------------------------------------------------0-]
[--------------------------------------------------------------------]
[0-0-0-0-1-0---0-0---0-0-1-0-0-1-1-1-1-1-1-0-0---0-0---1-1-1---0-0---] rpt
                                                                   p
         v-just slide the 1 to the 12, i couldnt make like a slow slide
[------------------------------------------------------------------]
[------------------------------------------------------------------]
[------------------------------------------------------------------]
[0-0-0-0-1/----/12~~~0-0-1-0-0-1-1-1-1-1-1-0-0---0-0---1-1-1--0-0-1]

 Verse
[-----------------------------------------]
[0-0-0---0-0---0-0---0-0-0-0---0-0-0-0-0--]
[-----------------------------------------]
[-----------------------------------------] rpt
 do i deserve these beatings, hating me, well then...

 v for this part, kinda turn your hand so when you play these notes, you kinda scrape
[0-0-0---0-0---0-0---0-0-0-0---0-0-0-0-0---] em too, to get
[------------------------------------------] the really high
[------------------------------------------] tone sound
[------------------------------------------] (rpt x3)
 t t t   t t   t t   t t t t   t t t t t
 cut...        cut the noose, and let me fall away
[0-0-0---0-0---0-0---0-0-0-0---0-0-0-2/(15)]
[------------------------------------------]
[------------------------------------------]
[------------------------------------------]
 fu*king,  pushing me...        
       (then go back to the one on the high C string)

  Bridge
[-------------------------------------]
[65-53-3/5-5/6-63-3p2-2p0-0h2-2h3/-]
[-------------------------------------] x4
[-------------------------------------]
 call it, call a truce, im believin, in it more and more..

[-------------------------------------]
[-------------------------------------]
[-------------------------------------]
[65-53-3/5-5/6-63-3p2-2p0-0h2-2h3/-]  x8  (into heavy part)
 shadowed, hide and seek, but you never looked....

[---------------------------------------]
[---------------------------------------]
[---------------------------------------]  x4
[6-5-5-3-3-5-5-6-6-3-3-2-2-3-3-2-2-0-2--]
 dreams sewing, filters distort reality of what is mine through...

  Plucking part
[7--------7-----7-------7---7-------7-------------7-----7-----7-------7--]
[6--------6-----6-------6---6-------6-------------6-----6-----6-------6--]
[------------------------------------------------------------------------]
[--0-0------0-----0-------0---0------------0-0------0-----0-----0-0-----0] rpt
 p s s    p s   p s     p s p s     p      s s    p s   p s   p s s   p s

[-----------------------------------------------------------------]
[-----------------------------------------------------------------]
[-----------------------------------------------------------------]
[0-0-0---0-0---0-0---0-0-0-0---0-0-0-0-0---0-0---0-0---0-0-0---0-0]  rpt
 throw the chains, all away, take control, of your life, powers known, this is my


Текст, аккорды и табулатура для песни "Trapped In The Wake Of A Dream", исполняет "Mudvayne".
Используемые в песне аккорды можно найти в разделе Как брать аккорды. Аккорды для шестиструнной гитары. Другие песни можно найти на нашем сайте, воспользовавшись алфавитным указателем вверху страницы.


Слушать онлайн Trapped In The Wake Of A Dream


MudvayneTrapped In The Wake Of A Dream на Яндекс.Музыке


 
Ошибка в тексте? Выделите ошибку и нажмите Ctrl+Enter