Artist: Mudvayne
Song: Prod
Tabbed By: Сньd_ld50 - e-mail = [email protected]
Contact: To correct my tab tell me on AIM my s
 is MrChuddd

Intro
|-------------------------------|
|-------------------------------|
|-------------------------------|
|-------------------------------|X1
|-0h2--xx--0h2--xx--0h2--xx0h2--|
|-0h2--xx--0h2--xx--0h2--xx0h2--|

Verse
|--------------------------|
|--------------------------|
|--------------------------|
|--------------------------|X18
|-xx--0h2--xx--0h2--xx0h2--|
|-xx--0h2--xx--0h2--xx0h2--|

Interlude1
|-----------------------------------------------|
|-----------------------------------------------|
|-----------------------------------------------|
|-----------------------------------------------|
|-2-2--0--2---0-2-0-2-0--2--0-2-0-2-0--2-0-2-0--|
|-2-2--0--2---0-2-0-2-0--2--0-2-0-2-0--2-0-2-0--|

Intro
|-------------------------------|
|-------------------------------|
|-------------------------------|
|-------------------------------|X1
|-0h2--xx--0h2--xx--0h2--xx0h2--|
|-0h2--xx--0h2--xx--0h2--xx0h2--|

Verse
|--------------------------|
|--------------------------|
|--------------------------|
|--------------------------|X9
|-xx--0h2--xx--0h2--xx0h2--|
|-xx--0h2--xx--0h2--xx0h2--|

Interlude
|-----------------------------------------------|
|-----------------------------------------------|
|-----------------------------------------------|
|-----------------------------------------------|
|-2-2--0--2---0-2-0-2-0--2--0-2-0-2-0--2-0-2-0--|
|-2-2--0--2---0-2-0-2-0--2--0-2-0-2-0--2-0-2-0--|

Chorus
|------------------------|
|------------------------|
|------------------------|
|-5-5---5-5---5-5---5-5--|X3
|-3-3---3-3---3-3---3-3--|
|-3-3---3-3---3-3---3-3--|

Intro
|-------------------------------|
|-------------------------------|
|-------------------------------|
|-------------------------------|X1
|-0h2--xx--0h2--xx--0h2--xx0h2--|
|-0h2--xx--0h2--xx--0h2--xx0h2--|

Verse
|--------------------------|
|--------------------------|
|--------------------------|
|--------------------------|X19
|-xx--0h2--xx--0h2--xx0h2--|
|-xx--0h2--xx--0h2--xx0h2--|

Chorus
|------------------------|
|------------------------|
|------------------------|
|-5-5---5-5---5-5---5-5--|
|-3-3---3-3---3-3---3-3--|
|-3-3---3-3---3-3---3-3--|

Interlude 2
|------------------|
|------------------|
|-----4---4-4/54--|
|-------2----------|X21
|-0h2--------------|
|------------------|


|----------------|
|----------------|
|-----4---4-4/5--|
|-------2--------|
|-0h2------------|
|----------------|
 Play this every 3 times you play Interlude 2

Interlude 3
|-------------------|
|-------------------|
|-----4-----4-4/54-|
|-----4-----4-4/54-|X13
|-0h2----2----------|
|-0h2----2----------|
 ^With Heavy Distortion


|--------------------------|
|--------------------------|
|-----------------------4--|
|-----------------------3--|X5
|--------------------------|
|-2--2-2--2-2--2-2--2-2----|


|--------------------------|
|--------------------------|
|-----------------------4--|
|-----------------------3--|X8
|-2--2-2--2-2--2-2--2-2----|
|-2--2-2--2-2--2-2--2-2----|


|------------------------------------------------------|
|------------------------------------------------------|
|------------------------------------------------------|
|-------------------------4------------------------5---|X5
|------------------------------------------------------|
|-2--2-2--2-2--2-2--2-2------2--2-2--2-2--2-2--2-2-----|
 ^Play really soft

Fill 1
|----------------------------------------------------------------|
|----------------------------------------------------------------|
|-99-9---/17-16-14-14h16p14-13-14--14-13-7-/9-/17-16-14-14h16p14-|
|----------------------------------------------------------------|
|----------------------------------------------------------------|
|----------------------------------------------------------------|

|------------------------------------------------------|
|------------------------------------------------------|
|------------------------------------------------------|
|-------------------------4------------------------5---|X1
|------------------------------------------------------|
|-2--2-2--2-2--2-2--2-2------2--2-2--2-2--2-2--2-2-----|

Fill 2
|-----------------------------------|
|-----------------------------------|
|-/17-17-17-16-14-14----12---11---9-|
|--------------------10----9----7---|
|-----------------------------------|
|-----------------------------------|

Riff 1
|----------|
|----------|
|-----x----|
|-----x----|X?
|-2-2-x-2-2|
|-2-2-x-2-2|


|---------------|
|---------------|
|---------------|
|-9---5---0---2-|X1
|-9---5---0---2-|
|-9---5---0---2-|
              ^Let ring


Intro
|-------------------------------|
|-------------------------------|
|-------------------------------|
|-------------------------------|X1
|-0h2--xx--0h2--xx--0h2--xx0h2--|
|-0h2--xx--0h2--xx--0h2--xx0h2--|

Verse
|--------------------------|
|--------------------------|
|--------------------------|
|--------------------------|X4
|-xx--0h2--xx--0h2--xx0h2--|
|-xx--0h2--xx--0h2--xx0h2--|

Interlude1
|-----------------------------------------------|
|-----------------------------------------------|
|-----------------------------------------------|
|-----------------------------------------------|
|-2-2--0--2---0-2-0-2-0--2--0-2-0-2-0--2-0-2-0--|
|-2-2--0--2---0-2-0-2-0--2--0-2-0-2-0--2-0-2-0--|
Chorus
|------------------------|
|------------------------|
|------------------------|
|-5-5---5-5---5-5---5-5--|X3
|-3-3---3-3---3-3---3-3--|
|-3-3---3-3---3-3---3-3--|

Thats it! You have just played Prod.whaaaaaaaaa!!!


Текст, аккорды и табулатура для песни "Prod", исполняет "Mudvayne".
Используемые в песне аккорды можно найти в разделе Как брать аккорды. Аккорды для шестиструнной гитары. Другие песни можно найти на нашем сайте, воспользовавшись алфавитным указателем вверху страницы.


Слушать онлайн Prod


MudvayneProd на Яндекс.Музыке


 
Ошибка в тексте? Выделите ошибку и нажмите Ctrl+Enter