Artist: Mudvayne
Song: Nothing to gein
Album: L.D.50 (2000)
Tabbed by: C. Merten & Jan Haverkamp (Bonn/Germany)      
Mail: [email protected]

/ = slide up
h = hammer on
p = pull off

S = Slap
P = Pop
X = dead note

A = 10
B = 11
.
.
.


intro (0:17):
   G -------------------------------------------------------------
4  D -------------------------------------------------------2-----
-  A -------------------------------------------7-----------------
4  E -------------------------------------7-5-----5---0-3------3--
   B -0-----/6------3------2------0---4/7-------------------------

G -----------------------------------------------------------
D -----------------------------------------------------------
A ---------------1--------------7---------4-5---4-4-5-7------
E -0-2---3-2--------------7-5-----5---7-7--------------------
B -----------3-2--0---4/7------------------------------------
                                                           

heavy part (0:43):
   G -----------------------------------------------------------------
4  D -----------------------------------------------------------------
-  A ---------------------------------------5-5---------------4h5-5---
4  E -----------------------------------------------------------------
   B -3-0-0-2-0-0-2-3/6-6-6-6-6-6-6-6-3-3-3-----3-5-3-2-2-2-2---------

G -------------------------------------------------------4---------
D ---------------------------------------6-------------3---3-------
A -------------------------------------5-----5-------4-------4-----
E ---------------------------------------------4-------------------
B -3-0-0-2-0-0-2-3/6-6-6-6-6-6-6-6-3-3-----------3-2-----------2-0-

G -----------------------------------------------------------------
D -----------------------------------------------------------------
A ---------------------------------------5-5-5h7p5-4p5-4p5-4p5-4p5-
E -----------------------------------------------------------------
B -3-0-0-2-0-0-2-3/6-6-6-6-6-6-6-6-3-3-3---------------------------


4x funk part (1:09): 
   G -----------------------------------------------------------------
9  D ------------6-----------------------------------6----------------
-  A -----5--5h7----------------------8-------5--5h7----------------8-
8  E -5h7-----------------------5---7---7-5h7--------------7--0h5h7---
   B ---------------0--0--0-4/7---7--------------------4/7------------

G -----------D-------
D -------6-----------
A -----------B-------
E -0h5h7---7-------7-
B -------------0-7---


break (1:47)
   G --------------D---------------D---------------D------------------
4  D -----------------------------------------------------------------
-  A --------------B---------------B---------------B------------------
4  E -----------------------------------------------------------------
   B 0-0-0-2-0-0-0---0-0-0-2-0-0-0---0-0-0-2-0-0-0---0-0-0-2-0--------
     S S S S S S S P ...


1x funk part (2:06)

1x break (2:15)


heavy part - variation A (2:24):
   G -----------------------------------------------------------------
4  D -----------------------------------------------------------------
-  A ---------------------------------------5-5---------------4h5-5---
4  E -----------------------------------------------------------------
   B -3-0-0-2-0-0-2-3/6-6-6-6-6-6-6-6-3-3-3-----3-5-3-2-2-2-2---------

G -------------------------------------------------------4---------
D ---------------------------------------6-------------3-----3-----
A -------------------------------------5-----5---------------------
E ---------------------------------------------4-------------------
B -3-0-0-2-0-0-2-3/6-6-6-6-6-6-6-6-3-3-----------3-2-2---------2-0-

G -----------------------------------------------------------------
D -----------------------------------------------------------------
A ---------------------------------------5-5---------------4h5-5---
E -----------------------------------------------------------------
B -3-0-0-2-0-0-2-3/6-6-6-6-6-6-6-6-3-3-3-----3-5-3-2-2-2-2---------

G -------------------------------------------------------4---------
D ---------------------------------------6-------------3---3-------
A -------------------------------------5-----5-------4-------4-----
E ---------------------------------------------4-------------------
B -3-0-0-2-0-0-2-3/6-6-6-6-6-6-6-6-3-3-----------3-2-----------2-0-


bridge (2:58):
   G ---------------------------------
9  D ---------------------------------
-  A ---------------------------------
8  E ---------------------------------
   B -0----0----0----0----0----0----0-
      S    S    S    S    S    S    S 


4x terror I (3:08) 
   G ---------------------------------4------7--
9  D -------------------------------------------
-  A -------------------------------------------
8  E ---------------------------0h5h7X---7------
   B -0-0-0-0-0-0---0---0-0-0-0------------5----
      S S S S S S   S   S S S S S    SP  S S P


terror II (3:27) 
   G ----------------------------4---------5---7-----------------
5  D ----------------------------------3-------------------------
-  A ---2-----2-----2-----2-0h2X---------3---5-----2-----2-----2-
4  E ------------------------------------------------------------
   B -0---0-0---0-0---0-0----------2-0-----------0---0-0---0-0---
      S P S S P S S P S S P S  S P S S P S P S P S P S S P S S P

G ---------4---------5---7-
D ---------------3---------
A -------2---3-3---3---5---
E -------------------------
B -0-0-0-------------------
   S S S S P S S P S P S P


4x terror I (3:38) 


heavy part - variation B (3:57):
   G -----------------------------------------------------------------
4  D -----------------------------------------------------------------
-  A ---------------------------------------5-5---------------4h5-5---
4  E -----------------------------------------------------------------
   B -3-0-0-2-0-0-2-3/6-6-6-6-6-6-6-6-3-3-3-----3-5-3-2-2-2-2---------

G -------------------------------------------------------4---------
D ---------------------------------------6-------------3---3-------
A -------------------------------------5-----5-------4-------4-----
E ---------------------------------------------4-------------------
B -3-0-0-2-0-0-2-3/6-6-6-6-6-6-6-6-3-3-----------3-2-----------2-0-

G -------------------------------------------------------------------
D -------------------------------------------------------------------
A ---------------------------------------5-5-------------------------
E ---------------------------------------------------------4h5-5-----
B -3-0-0-2-0-0-2-3/6-6-6-6-6-6-6-6-3-3-3-----3-5-3-2-2-2-2-------0---
    								(fade)

Extro = short Intro (4:57)

   G -----------------------------------------------------------------
4  D ---------------------------2-------------------------------------
-  A ---------------7-------------------------------1---------------7-
4  E ---------7-5-----5---0-3------3--0-2---3-2---------------7-5-----
   B -0---4/7-----------------------------------3-2---0---4/7---------

G ----------------------------I
D ----------------------------I
A ---------4-5---4-4-5-7------I
E -5---7-7--------------------I
B ----------------------------I
                      (fade)

Note: Of course itґs not 100% perfect but you should be able to kick
      some asses! Feedback, additions & corrections ... welcome!!


=====


Mudvayne: Nothing to Gein
Album: LD50
Tabbed by: Luke Brown [email protected]
Tuning: Dropped D down 3 half steps to B-F#-B-E

Intro:
E:----------|----7----12----12---10-----------------7----12
B:----------|5h7---7ЎX-12----12---10---------------5---7--12
F#:---------|------------10----8-----87-7-7h8ЎX5-----------
B:-0-6-3-2--|----------------------------------------------

E:----------------9-10-12
B:-----------------------
F#:-108-5-7-8-7---------
B:-----------------------

Chorus:
E:-------------------------------------------------------- (riff1)
B:------------------------------------3--5---------2-3-2-3
F#:-------------------------------------------------------
B:0h2-0-0-2-0-0-2-3-6666666-0-3-3-3-3------33-2222--------

E:---------------------------------4-4------------7-----    (riff2)
B:-------------------------------------0--------5----6p0
F#:-----------------------------------------------------
B:0h2-0-0-2-0-0-2-3-6666666-0-3-3---------33-22---------

E:--------------------------------------------------------  (riff3)
B:------------------------------------3-5--------2-3-2-3-2
F#:-------------------------------------------------------
B:0h2-0-0-2-0-0-2-3-6666666-0-3-3-3-3------33-22----------

Verse pt.I:
E:--------4---------------------4-------4---4-4
B:2-3--------------6p0-----3---3------3---3---3
F#:--------------------------------------------
B:----0-0---00-0-0-----0-0---0-----0-----------

E:-----4------------------------4---------4---4-4
B:--3----------------6p0----3-----------3---3-3-3
F#:----------------------------------------------
B:0---0---00-0-2-3-2------0----0ЎX-0-0-0----------

Verse pt.II
E:-----------4-----------4---------4-----4---4-4
B:-------3---3---2-3-0-3---3-2-3-2---0-3---3-3-3
F#:---------------------------------------------
B:0-2ЎX-0---0------------------------------------

E:------4-----4---------4-------4---4-4
B:2-3-2---0-3---3-2-3-2---3-2-3---3-3-3
F#:------------------------------------
B:-------------------------------------
Verse pt.III
E:------------------4  (3x)
B:------------------3
F:#------------------
B:0h2-0-0-0h2-0-0-0ЎX

Verse pt.II
E:--------------4------4----4-4
B:0-3---3----0-3ЎX-3ЎX3-----0-3-3
F#:----------------------------
B:----0---00-------------------

Play Chorus Riffs again in this order 1-1-2-3

Pre-Interlude (is that a valid name?)
E:------------
B:-x---x------
F#:-----------
B:---0---0-ЎX00
Slap and Pop notes, repeat a few times with variations

Interlude:
E:--------------7----10  (4x)
B:---------------------
F#:--------------------
B:000000-00-000---00---

Interlude cont.
E:--------------------7----7---9---10--7
B:-------------------------6------------
F#:5----5----5----5---------------------
B:---00---00---00---0---00---0---0---0--
Play this riff twice with a variation on the very end

Go back to Interlude riff 4x, then chorus again, and then 
listen to Kud and Gurgg be all cool ѓє
After that, play through the intro riffs again

I know this isnt perfect, but it should be a good guide for you
Comments, Questions, anything...email me
[email protected]
or [email protected]


Текст, аккорды и табулатура для песни "Nothing To Gein", исполняет "Mudvayne".
Используемые в песне аккорды можно найти в разделе Как брать аккорды. Аккорды для шестиструнной гитары. Другие песни можно найти на нашем сайте, воспользовавшись алфавитным указателем вверху страницы.


Слушать онлайн Nothing To Gein


MudvayneNothing To Gein на Яндекс.Музыке


 
Ошибка в тексте? Выделите ошибку и нажмите Ctrl+Enter