Song: “Internal Primates Forever”
Artist: Mudvayne
Album: L.D. 50
Transcribed By: thomas hassler

Tuning: Drop D, Down 1 1/2 Steps (B,F#,B,E,G#,C#)

INTRO:
|--------------------------------------------------|
|--------------------------------------------------|
|--------------------------------------------------|
|--------------------------------------------------|
|--------------------------------------------------|
|-4-0-1--1-0-1--0-0-3-2-3--4-0-1--1-0-1--0-0-3-2-3-|

CHORUS:
|--------------------------------------------------|
|--------------------------------------------------|
|--------------------------------------------------|
|--------------------------------------------------|
|-4-0-1--1-0-1--0-0-3-2-3--4-0-1--1-0-1--0-0-3-2-3-|
|-4-0-1--1-0-1--0-0-3-2-3--4-0-1--1-0-1--0-0-3-2-3-|

FILL:
|--------------------|
|--------------------|
|--------------------|
|--------------------|
|-4-0-1--0-1--0-1--0-|
|-4-0-1--0-1--0-1--0-|

VERSE:
|-----------------------|
|-----------------------|
|---7-------7---------7-|
|-6---6-0-6---6-0-6-0-6-|
|-----------------------|
|-----------------------|
PM    . .     . . . .

VERSE FILL:
|-------------------------|
|-------------------------|
|---7-------7---------76-|
|-6---6-0-6---6-0-6-0-65-|
|-------------------------|
|-------------------------|
PM    . .     . . . .

BRIDGE: (palm mute)
|---------------------------------|
|---------------------------------|
|-7-7-7-------------3-3-3-5-5-6-6-|
|-------3-3-3-5-5-5---------------|
|---------------------------------|
|---------------------------------|

BRIDGE 2:
|----------------------------------------|
|----------------------------------------|
|----------------------------------------|
|----------------------------------------|
|-12-12-12-3-3-3-5-5-5-8-8-8-10-10-11-11-|
|-12-12-12-3-3-3-5-5-5-8-8-8-10-10-11-11-|

FILL 2:
|-------------------------------------|
|-------------------------------------|
|-------------------------------------|
|-------------------------------------|
|-12-12-12-10-10-10-9-9-9-8-8-8-7-7-7-|
|-12-12-12-10-10-10-9-9-9-8-8-8-7-7-7-|

INTERLUDE:
|--------------------------|    |--------------------------|
|--------------------------|play|--------------------------|
|--------------------------| 4X |--------------------------|
|--------------------------|then|--------------------------|
|-5-3-0-3-5-0-3--6-3-0-3/5-|    |-5-3-0-3-5-0-3--6-3-0-8-5-|
|-5-3-0-3-5-0-3--6-3-0-3/5-|    |-5-3-0-3-5-0-3--6-3-0-8-5-|

INTERLUDE 2:
|---------------------------------|
|-8-8-8-8-8-8-8-8-8-8-8-8-9-9-9-9-|
|-X-X-X-X-X-X-X-X-X-X-X-X-X-X-X-X-|
|-5-5-5-5-5-5-5-5-5-5-5-5-6-6-6-6-|
|---------------------------------|
|---------------------------------|

INTERLUDE 3:
|--------------------------|
|--------------------------|
|--------------------------|
|--------------------------|
|-5-3-0-3-5-0-3--6-3-0-3/5-|
|-5-3-0-3-5-0-3--6-3-0-3/5-|

FILL 3: (no pause between spaces)
|-------------------------------------------|
|-------------------------------------------|
|-------------------------------------------|
|-------------------------------------------|
|-63035-63035-63035-63035-63035-63035-63030-|
|-63035-63035-63035-63035-63035-63035-63030-|

FILL 4:
|---------------|
|---------------|
|---------------|
|---------------|
|-0h2-0h2-3p0-2-|
|-0h2-0h2-3p0-2-|

CHORUS:
|---------------------------|
|---------------------------|
|---------------------------|
|---------------------------|
|-4p0-1p0-1p0-1p0-0-0-3-2-3-|
|-4p0-1p0-1p0-1p0-0-0-3-2-3-|

OUTRO:
|-----------------------------|
|-----------------------------|
|-----------------------------|
|-----------------------------|
|-4-3-0-7-6--X--4-3-0-7-6-0-3-|
|-4-3-0-7-6--X--4-3-0-7-6-0-3-|

OUTRO 2:
|------------------------------------|
|------------------------------6-6-6-|
|------------------------------4-4-4-|
|------------------------------3-3-3-|
|-4-3-0-7-6-0-3--4-3-0-7-6-0-0-------|
|-4-3-0-7-6-0-3--4-3-0-7-6-0-0-------|

OUTRO 3:
|--------------|
|--------------|
|--------------|
|--------------|
|-4-0-1--1-0-1-|
|-4-0-1--1-0-1-|


Текст, аккорды и табулатура для песни "Internal Primates Forever", исполняет "Mudvayne".
Используемые в песне аккорды можно найти в разделе Как брать аккорды. Аккорды для шестиструнной гитары. Другие песни можно найти на нашем сайте, воспользовавшись алфавитным указателем вверху страницы.


Слушать онлайн Internal Primates Forever


MudvayneInternal Primates Forever на Яндекс.Музыке


 
Ошибка в тексте? Выделите ошибку и нажмите Ctrl+Enter