Everything And Nothing-Mudvayne
L.D. 50

Drop B:
B F# B E G# C#


Intro: Drums, then

Verses: (0:17)-(0:45)

Fig. 1 x4

e-------------------------------------------------------------
b-------------------------------------------------------------
g-------7---7-7---------7--7/8--------7---7-7---------7--7/8--
d-0--0------------0---0---------0--0------------0---0---------
a-------------------------------------------------------------
d-------------------------------------------------------------

Chorus: (0:36)
x2
e-------------------------------------------------------------
b-------------------------------------------------------------
g-------7---7-7---------7--7/8--------7---7-7---------7--7/8--
d-------x---x-x---------x--x-x--------x---x-x---------x--x-x--
a-------5---5-5---------5--5/6--------5---5-5---------5--5/6--
d-0--0------------0---0---------0--0------------0---0---------

Chorus 2: (1:05)
x4
e-------------------------------------------------------------
b-------------------------------------------------------------
g-------7---7-7---------7--7/8--------7---7-7---------7--7/8--
d-------x---x-x---------x--x-x--------x---x-x---------x--x-x--
a-------5---5-5---------5--5/6--------5---5-5---------5--5/6--
d-0--0------------0---0---------0--0------------0---0---------

(1:24)
e----------------------------------
b----------------------------------
g-7-7-7-7-----9-9-9-9----1010------
d-8-8-8-8-----8-8-8-8-----8-8------
a-5-5-5-5-----7-7-7-7-----8-8------
d----------------------------------

(1:26)
x4
e-----------------------------------------------------------------
b-----------------------------------------------------------------
g-----------------------------------------------------------------
d-4-------------------------------4-------------------------------
a-2-32-0-----2p0-0---2/3-2-0-----2-32-0-----2p0-0---2/3-2-0-----
d---32-0-----2p0-0---2/3-2-0-------32-0-----2p0-0---2/3-2-0-----

(1:46)

x7
e-------------------------------------------------------------
b-------------------------------------------------------------
g-------7---7-7---------7--7/8--------7---7-7---------7--7/8--
d-0--0------------0---0---------0--0------------0---0---------
a-------------------------------------------------------------
d-------------------------------------------------------------

(2:22)
e-----------------------------------------------------------------
b---------------------------------------------------------3-------
g-------7---7-7---------7--7/8--7h8p7p5-7-----5-------2-----------
d-0--0------------0---0--------------------8------7---------------
a-----------------------------------------------------------------
d-----------------------------------------------------------------

(2:26)
e----------------------------------
b-3----3---------------------------
g-2----2---------------------------
d-0----0-----8-----8-----3---3-----
a-0----------8-----8-----3---3-----
d-0----------8-----8-----3---3-----

Chorus 3: (2:29)-(2:41)

x2
e-------------------------------------------------------------
b-------------------------------------------------------------
g-------7---7-7---------7--7/8--------7---7-7---------7--7/8--
d-------x---x-x---------x--x-x--------x---x-x---------x--x-x--
a-------5---5-5---------5--5/6--------5---5-5---------5--5/6--
d-0--0------------0---0---------0--0------------0---0---------

(2:38)
e----------------------------------
b----------------------------------
g10---------------------10---------
d-x----------8-----------x---------
a-8----------8-----------8---------
d------0-----8------0--------0-----

(2:50)
e----------------------------------
b----------------------------------
g-7-7-7-7-----9-9-9-9----1010------
d-8-8-8-8-----8-8-8-8-----8-8------
a-5-5-5-5-----7-7-7-7-----8-8------
d----------------------------------

Outro: (2:53)
x4
e-----------------------------------------------------------------
b-----------------------------------------------------------------
g-----------------------------------------------------------------
d-4-------------------------------4-------------------------------
a-2-32-0-----2p0-0---2/3-2-0-----2-32-0-----2p0-0---2/3-2-0-----
d---32-0-----2p0-0---2/3-2-0-------32-0-----2p0-0---2/3-2-0-----

(3:12)
e-----------------------------
b-----------------------------
g-----------------------------
d-----------------------------
a-0--0--3---0-0----3---0-3-0--
d-0--0--3---0-0----3---0-3-0--


that’s all

trevor jones
[email protected]


Текст, аккорды и табулатура для песни "Everything And Nothing", исполняет "Mudvayne".
Используемые в песне аккорды можно найти в разделе Как брать аккорды. Аккорды для шестиструнной гитары. Другие песни можно найти на нашем сайте, воспользовавшись алфавитным указателем вверху страницы.


Слушать онлайн Everything And Nothing


MudvayneEverything And Nothing на Яндекс.Музыке


 
Ошибка в тексте? Выделите ошибку и нажмите Ctrl+Enter