Mudvayne - DeathBlooms
Tabbed By - Chud 
Hey this is My Second Tab. So dont Get pissed at 
me if some Parts are wrong just tell me and I'll Correct them.

 Enjoy 

Intro
B |----------------------15----15----15--------|
F#|--------------------------------------------| __X 4
B |--------------------------------------------| /
F#|-3-2-2-2-2-3-2-2-2-2------------------------|/
                         (hear the song and play and you'll 
                           see why the 15 is there)

     
B |---------------------------------|
F#|---------------------------------|X 4
B |-0-7-8-0-7-8-0-7-8-0-5-0-3-5-2-0-|
F#|---------------------------------|


B |--------------------|
F#|--------------------|
B |--------------------|
F#|-3-2-2-2-2-3-2-2-2--|

B |-----------------------------------------|
F#|-----------------------------------------| X 2
B |-----------------------------------------|
F#|-1-0-0-0-0-1-0-0-0-----1-0-0-0-0-1-0-0-0-|
                      ^^^wait for the guitar part

B |---------------------|
F#|---------------------|
B |-3-2-2-3-5-5-0-2-2---|
F#|---------------------|
    ^^ Reflections of my life are faiding

B |-------------------------------------|
F#|-------------------------------------|
B |-3-2-2-2-3-2-2-3-2-2-2-3-2-2-4-3-2-2-|x 3
F#|-------------------------------------|
    im not sure how many times your suppose to do it 

B |-------------------|
F#|-------------------|
B |-------------------|
F#|-3-2-2-2-2-3-2-2-2-|

B |-----------------------------------------|
F#|-----------------------------------------| X 2
B |-----------------------------------------|
F#|-1-0-0-0-0-1-0-0-0-----1-0-0-0-0-1-0-0-0-|
                      ^^^wait for the guitar part

B |---------------------|
F#|---------------------|
B |-3-2-2-3-5-5-0-2-2---|
F#|---------------------|
    ^^ Reflections of my life are faiding

B |-------------------------------------|
F#|-------------------------------------|
B |-3-2-2-2-3-2-2-3-2-2-2-3-2-2-4-3-2-2-|x 3
F#|-------------------------------------|

                           Play both of these plart X2
B |--------------------------------------7-----7---5-----5-----3--|
F#|------------------------------------7---7---------5-----3------|
B |-0-7-8-0-7-8-0-7-8-0-5-0-3-5-2-0--5-------5---3-----3-----1----|
F#|---------------------------------------------------------------|
                                     ^ really hard part cause you Must play Fast   

B |--------------------------------------7-----7---9------9----------12--|
F#|------------------------------------7---7---------9------9------------|  
B |-0-7-8-0-7-8-0-7-8-0-5-0-3-5-2-0--5-------5---7-----7------7---10-----| 
F#|----------------------------------------------------------------------|
                                     ^ you know what to do
      P         P P 
B |---9---------9-9--|
F#|------------------|
B |-x---x-x-x-x------|X 6
F#|-x---x-x-x-x------|

                                            P P
B |-----------------------------------------9-9-|
F#|---------------------------------------------|X 3
B |-4--3-1-3-1-1-4---4-3-1-3-4---4-3-1-3-1------|
F#|---------------------------------------------|

      P         P P 
B |---9---------9-9--|
F#|------------------|
B |-x---x-x-x-x------|X 6
F#|-x---x-x-x-x------|

     
B |-7--5--3----------------------|
F#|-7--5--3----------------------|
B |-5--3--1--0-0-0-1-0-0-0-2-1-0-|X  3
F#|------------------------------|
    ^  ^  ^ Strum with index finger nail

B |---------------------|
F#|---------------------|
B |-0-0-0-1-0-0-0-2-1-0-|X 4 
F#|---------------------|

                             P
B |--------------------------4-|
F#|----------------------------|
B |-0-0-0-1-0-0-0-2-1-0-3/5----|X 8
F#|----------------------------|

                             P
B |--------------------------9-|
F#|----------------------------|
B |-0-0-0-1-0-0-0-2-1-0-2/7----|
F#|----------------------------|


                             P
B |--------------------------10-|
F#|-----------------------------|
B |-0-0-0-1-0-0-0-2-1-0-2/8-----|
F#|-----------------------------|


                             P
B |--------------------------13-|
F#|-----------------------------|
B |-0-0-0-1-0-0-0-2-1-0-2/11----|
F#|-----------------------------|


                            
B |----------------------2:---|
F#|----------------------2:---|
B |-0-0-0-1-0-0-0-2-1-0--0:---|
F#|---------------------------| 
                         ^Strum once and let Ring until KuD starts to Scream 


B |-------------------------------------|
F#|-------------------------------------|
B |-3-2-2-2-3-2-2-3-2-2-2-3-2-2-4-3-2-2-|x 6
F#|-------------------------------------|
 

                                   Play both of these plart X4
B |--------------------------------------7-----7---5-----5-----3--|
F#|------------------------------------7---7---------5-----3------|
B |-0-7-8-0-7-8-0-7-8-0-5-0-3-5-2-0--5-------5---3-----3-----1----|
F#|---------------------------------------------------------------|
                                        
B |--------------------------------------7-----7---9------9----------12--|
F#|------------------------------------7---7---------9------9------------|  
B |-0-7-8-0-7-8-0-7-8-0-5-0-3-5-2-0--5-------5---7-----7------7---10-----| 
F#|----------------------------------------------------------------------|


B |-------------------|
F#|-------------------|
B |-------------------|
F#|-3-2-2-3-2-0-2-2---|
   This part is right after the Chorus Thing         
                           
B |--------------------------------6----------------------------------------------------6--------------------|
F#|-----------------------------------------------------------------------2-2--------------------------------|
B |---------------------3h2----------2-1-2-1-2-1-0-4-4-4--------------3-2------------------2-1-2-1-2-1-4-4---|
F#|-0-0---0---0---0---0-----0---0------------------------0-0---0---0-----------0-0---0-----------------------|

B |--------------------------------------------------------------------------------------6:-|
F#|----------------------------------------------------------------------2-2----------------|
B |---------------------3h2----------2-1-2-1-2-1-0-4-4-4-------------3-2--------------------|
F#|-0-0---0---0---0---0-----0-0---0----------------------0-0---0---0----------0-0---0---0---|
                                                                                          ^ Let ring through 
                                                                                            the end tof the song
Thats DeathBlooms 
                          Thats All Folks!!


Текст, аккорды и табулатура для песни "Death Blooms", исполняет "Mudvayne".
Используемые в песне аккорды можно найти в разделе Как брать аккорды. Аккорды для шестиструнной гитары. Другие песни можно найти на нашем сайте, воспользовавшись алфавитным указателем вверху страницы.


Слушать онлайн Death Blooms


MudvayneDeath Blooms на Яндекс.Музыке


 
Ошибка в тексте? Выделите ошибку и нажмите Ctrl+Enter