Artist: Mud Vayne
Song title: Death Blooms
Album: L.D. 50
Written by: Mr. X Korupted® - Guitarist
[email protected] 

100% sure. Check it out 
Comments my email is [email protected]

Tunning is : low to high: B F# B E G# C#                               


Intro 0:00                 (play 4 times)
|----------------------------------------|
|----------------------------------------|
|-----------------7-----7-----7----------|
|-------------------7-----7-----7--------|
|--3-2-2-3-2-2-0------7-----7------------|  
|--3-2-2-3-2-2-0-------------------------|
      P.M..........

                           (play 4 times)   then..
|----------------------------------------||-------------------------------|
|----------------------------------------||-------------------------------|
|----------------------------------------||-------------------------------|
|----------------------------------------||-------------------------------|
|--0-7-8-0-7-8-0-7-8-0-5-0-3-5-2-0-------||--32-0-3/5-0-2/3-3-----3------|
|--0-7-8-0-7-8-0-7-8-0-5-0-3-5-2-0-------||--32-0-3/5-0-2/3---2-2---2-2--|

(0:25)
Verse (listen for placement) (play 3 times)   then..
|----------------------------------------||-------------------|
|----------------------------------------||-------------------|
|----------------------------------------||-------------------|
|----------------------------------------||-------------------|
|--3-----3-------------------------------||--32-0-3/5-0-2/3--|
|----2-2---2-2---------------------------||--32-0-3/5-0-2/3--|

(0:36)
Pre-Chorus                   (play 4 times)   then.. 
|----------------------------------------||-------------------------------|
|----------------------------------------||-------------------------------|
|----------------------------------------||-------------------------------|
|----------------------------------------||-------------------------------|
|--3-2-2-3-2-2-3-2-2-3-2-2-3-2-0-2-------||--32-0-3/5-0-2/3-3-----3------|
|--3-2-2-3-2-2-3-2-2-3-2-2-3-2-0-2-------||--32-0-3/5-0-2/3---2-2---2-2--| Back to verse


After verse play the first section of the pre-chorus one more time and then play this:
|------------------------------------|
|------------------------------------|
|------------------------------------|
|------------------------------------|
|--0-7-8-0-7-8-0-7-8-0-5-0-3-5-2-0---|  
|--0-7-8-0-7-8-0-7-8-0-5-0-3-5-2-0---|

Chorus (1:14)                                                        (play 4 times)
|--------------------------------------------------------------------------------|
|--------------------------------------------------------------------------------|
|---7-----7--7--7--7--5--5--5--5-------------------------------------------------|
|---7-----7--7--7--7--5--5--5--5--/8--8--8--8------------------------------------|
|---5-----5--5--5--5--3--3--3--3--/8--8--8--8---0-7-8-0-7-8-0-7-8-0-5-0-3-5-2-0--|
|---------------------------------/8--8--8--8---0-7-8-0-7-8-0-7-8-0-5-0-3-5-2-0--|

D5 (1:34)
|------|
|------|
|------|
|--0^--|
|--0^--|  
|--0^--| Bend and hold the Full note, then release


Bridge (1:38)                (play 2 times)
|----------------------------------------|
|----------------------------------------|
|----------------------------------------|
|----------------------------------------|
|--1-----------1-------------------------|  
|----2-0-3-2-0---2-0-3-2-0-0---0-3-------|
                                                   
   P.M..................	     P.M...... 	 (play 3 times)
|--------------------------------------------------------------|
|--------------------------------------------------------------|
|--------------------------------------------------------------|
|---------------------------------------------3-3--3--3-3-3----|
|--3---2-0-2-0-2-3---2-0-2-0---3---2-0-3-0-0--3-3--3--3-3-3----|  
|--3---2-0-2-0-2-3---2-0-2-0---3---2-0-3-0-0--3-3--3--3-3-3----| Back to Bridge, Play 3 Times

|----------------------------------| |-------------------------------| 
|----------------------------------| |--3---1---3--------------------|
|----------------------------------| |--2---0---0--------------------|
|--3-2-0-3-2-0-3-2-0-3-2-0--0--0---| |--0---2---0--------------------|
|--3-2-0-3-2-0-3-2-0-3-2-0--0--0---| |------3---2--------------------|
|--3-2-0-3-2-0-3-2-0-3-2-0--0--0---| |-------------3-0-0-3-0-0-3-0-0-|
                                     

(2:53)
|--------------------------------|
|--------------------------------|
|--------------------------------|
|--------------------------------|
|--3-0-0-3-0-0-3-0-0--0-0------8-|
|--3-0-0-3-0-0-3-0-0--0-0--0-0---| Repeat, Substitute the 8 for a 10 second time, then 3rd a 12
     P.M...................

 4th time play this
|----------------------------------|
|----------------------------------|
|----------------------------------|
|----------------------------------|
|--3-0-0-3-0-0-3-0-0----0----------|
|--3-0-0-3-0-0-3-0-0----0-LET-RING-| After this, Go back to Pre-Chorus. Into Chorus

(4:13) Outro
|--------------------------------------------------------------------------------------------|
|--------------------------------------------------------------------------------------------|
|--------------------------------------------------------------------------------------------|
|-----------------------------------------------------------4--------------------------------|
|-----------------------------------------------------------3---3--0--0--3--5--0--0--3/5-35-|
|--0--0-----0-----0-----0-----0-----0--3--2------0------0-------3--0--0--3--5--0--0--3/5-35-|


Текст, аккорды и табулатура для песни "Death Blooms", исполняет "Mudvayne".
Используемые в песне аккорды можно найти в разделе Как брать аккорды. Аккорды для шестиструнной гитары. Другие песни можно найти на нашем сайте, воспользовавшись алфавитным указателем вверху страницы.


Слушать онлайн Death Blooms


MudvayneDeath Blooms на Яндекс.Музыке


 
Ошибка в тексте? Выделите ошибку и нажмите Ctrl+Enter