artist: mudvayne
song: death blooms
tunning: B F# B E G# C#
album: L.D 50
transcribed by: thomas hassler([email protected])
-harmonics
here you go.. the real version..100%.....

Intro:              
|------------------------------------------|
|------------------------------------------|
|---------------------------------|repeat 4 times
|---------------------------------|
|-3-2-2-3-2-2-2-2--------------------|
|-3-2-2-3-2-2-2-2--------------------------|

|---------------------------------|
|---------------------------------|
|---------------------------------|repeat 4 times
|---------------------------------|
|-0-7-8-0-7-8-0-7-8-0-5-0-3-5-2-0-|
|-0-7-8-0-7-8-0-7-8-0-5-0-3-5-2-0-|

Verse:
|------------------------------------------|
|------------------------------------------|
|------------------------------------------|
|------------------------------------------|
|-3-2-0-3-5-0-2-3--2-----2-----2-----2-----|
|-3-2-0-3-5-0-2-3----3-3---3-3---3-3---3-3-|

|--------------------------------------------------|
|--------------------------------------------------|
|--------------------------------------------------|
|--------------------------------------------------|
|-3-2-0-3-5-0-2-3--3-2-2-3-2-2-3-2-2-3-2-2-3-2-0-2-|
|-3-2-0-3-5-0-2-3--3-2-2-3-2-2-3-2-2-3-2-2-3-2-0-2-|

Riff 1:
|---------------------------------|
|---------------------------------|
|---------------------------------|
|---------------------------------|
|-0-7-8-0-7-8-0-7-8-0-5-0-3-5-2-0-|
|-0-7-8-0-7-8-0-7-8-0-5-0-3-5-2-0-|

|---------------------------------|
|-------3-------------------------|
|----2------------0------0--------|
|-0---------------2------2--------|
|-0---------------3------3---//8-8|
|-0--------------------------//8-8|

|---------------------------------|
|---------------------------------|
|---------------------------------|
|---------------------------------|
|-0-7-8-0-7-8-0-7-8-0-5-0-3-5-2-0-|
|-0-7-8-0-7-8-0-7-8-0-5-0-3-5-2-0-|

|------------------------------------|
|-------3----------------------------|
|----2------------0------0-----------|
|-0---------------2------2-----------|
|-0---------------3------3---//8-8-8-|
|-0--------------------------//8-8-8-|

|---------------------------------|
|---------------------------------|
|---------------------------------|
|---------------------------------|
|-0-7-8-0-7-8-0-7-8-0-5-0-3-5-2-0-|
|-0-7-8-0-7-8-0-7-8-0-5-0-3-5-2-0-|

|--------------------------------------|
|-------3------------------------------|
|----2------------0------0-------------|
|-0---------------2------2-------------|
|-0---------------3------3----/8-8-8-8-|
|-0---------------------------/8-8-8-8-|

|---------------------------------|
|---------------------------------|
|---------------------------------|
|---------------------------------|
|-0-7-8-0-7-8-0-7-8-0-5-0-3-5-2-0-|
|-0-7-8-0-7-8-0-7-8-0-5-0-3-5-2-0-|

|-----------------------------------------------------|
|-------3---------------------------------------------|
|----2------------0------0-----------------2----------|
|-0---------------2------2-----------------0----------|
|-0---------------3------3----/8-8-8-8-----0----------|
|-0---------------------------/8-8-8-8-----0----------|

Riff 2:
|---------------------------------------------------------|
|---------------------------------------------------------|
|---------------------------------------------------------|
|---------------------------------------------------------|
|-1------------1------------------1-----------1-----------|
|---2-0-3-2-0----2-0-3-2-0--0-0----2-0-3-2-0---2-0-3-2-0-0|

Riff 3:                  repeat 3 times
|---------------------------------------------------------|
|---------------------------------------------------------|
|---------------------------------------------------------|
|----------------------------------------------3-----3--3-|
|-3--2-0-2-0-2-3-------2-0-2-0-3----2-0-2-0-0--3-----3--3-|
|-3--2-0-2-0-2-3-------2-0-2-0-3----2-0-2-0-0--3-----3--3-|

Riff 4:
|--------------------------------|
|--------------------------------|
|--------------------------------|repeat 3 times
|--------------------------------|
|-1-----------1------------0---0-|
|---3-0-3-2-0---3-0-3-2-0--0---0-|

|------------------------------------|
|------------------------------------|
|------------------------------------|
|-3--------------3-------------------|repeat 3 times
|-1----3-0-3-2-0-1----3-0-3-2-0-0--0-|
|------3-0-3-2-0------3-0-3-2-0-0--0-|

riff 5:
|-----------------3-----------------|
|-3--------1------3-----------------|
|-2--------0------0-----------------|
|-0--------2------0-----------------|
|----------3------2-----------------|
|-----------------------------------|

|--------------------------|
|--------------------------|
|--------------------------|
|--------------------------|repeat 4 times
|--------------------------|
|-3-0-0---3-0-0---3-0-0--0-|

Riff 6:|
|-----------------------------------------|
|-----------------------------------------|
|-------------------------------------5---|repeat 11 times
|-----------------------------------------|
|-3-0-0---3-0-0---3-0-0--0------0-0---3---|
|-3-0-0---3-0-0---3-0-0--0------0-0-------|

|------------------------------------|
|------------------------------------|
|------------------------------------|
|------------------------------------|
|3-0-0---3-0-0---3-0-0---0-----------|
|3-0-0---3-0-0---3-0-0---0-----------|

Outro:
|---------------------------------------------------------|
|---------------------------------------------------------|
|---------------------------------------------------------|
|-----------------------------------------4---------------|
|-----------------------------------------3---3-0-0-3-5-0-|
|-0--0----0----0----0----0--3-2---0----0------3-0-0-3-5-0-|

|----------------------------|
|----------------------------|
|----------------------------|
|----------------------------|
|-0--0--------------3-2--3/5-|
|-0--0----0-----0---3-2--3/5-|

|-----------------------------------|
|-----------------------------------|
|-----------------------------------|
|----------------4------------------|
|----------------3--3-0-2-3-5-0-2-3-|
|-0--0---0----0-----3-0-2-3-5-0-2-3-|

|---------------------------------------------------------|
|---------------------------------------------------------|
|---------------------------------------------------------|
|-----------------------------------------4---------------|
|-----------------------------------------3---3-0-0-3-5-0-|
|-0--0----0----0----0----0--3-2---0----0------3-0-0-3-5-0-|

|----------------------------|
|----------------------------|
|----------------------------|
|----------------------------|
|-0--0--------------3-2--3/5-|
|-0--0----0-----0---3-2--3/5-|

|------------------------------|
|------------------------------|
|------------------------------|
|---------------4--------------|
|---------------3--------------|
|-0--0---0--0------------------|


there you go ppl.... hope you like........
all credit to mudvayne


Текст, аккорды и табулатура для песни "Death Blooms", исполняет "Mudvayne".
Используемые в песне аккорды можно найти в разделе Как брать аккорды. Аккорды для шестиструнной гитары. Другие песни можно найти на нашем сайте, воспользовавшись алфавитным указателем вверху страницы.


Слушать онлайн Death Blooms


MudvayneDeath Blooms на Яндекс.Музыке


 
Ошибка в тексте? Выделите ошибку и нажмите Ctrl+Enter