Name:Zak Roth
E-mail:n/a
Band:Mudvayne
Song:-1
Tune:B,F,B,E,G#
All right, this is the 100% sure version of the song, I've watched the
dvd a million fucking times, and i want to ask amatuers to stop posting
shitty tabs of this song, they don't know what the fuck they're talking
about.This is an awesome song, and I know pretty much how to play all of
them on bass and guitar.

Intro/verse: (wait till verse and lyrics come in)
X------------------------------------------------------
X------------------------------------------------------
X------------------------------------------------------
X------3h4------------------------3h4------------------
X-3po0-----3po0---3po0---0---3po0-----3po0--3po0--0-x-0
Chorus:
X----------------------------
X----------------------------
X----------------------------
X------3h4-------------------
X-3po0-----3po0---3po0-0-0--0
Before bridge:
X-------------------------------------
X-------------------------------------
X-------------------------------------
X-------------------------------------
X-2h3-2h3-5-3-2h3-2h3-2h3-5-3-5h6-5h6-
Then play:
X-------------------------x-x--x
X-------------------------x-x--x
X-------------------------x-x--x
X-------------------------x-x--x
X-2h3-2h3-5-3-2h3-2h3-2h3-x-x--x
Bridge:
(basically same as verse,just use a little impro and funk it up)

Then just play the chorus again, and the ending which is the same thing
only shortened. And there you go.


======Tabbed by - Schem [[email protected]] [http://www.twistedinc.com]
Artist - Mudvayne
Song - Negative 1
Album - L.D. 50

Although Ryknow plays on a 5-string [G C G C F] 
you can play it fine on a 4-string tuned to
drop-d minus 1 step [C G C F]. The best eq for this 
is keeping your low-end much louder than
your high-end, and having the volume fairly low if you're playing with guitar.

T - Slapped
S - Popped
() - Muted Slap/Pop [don't let the note ring out]
h - Hammer-on
p - Pull-off
x - Dead note


+- MAIN RIFF [0:09] 

F|----------------------------|-
C|----------------------------|-
G|-------2--------------------|-
C|-0-1h3---1-0---0h1-1-x-1-0--|-+- BREAKDOWN 2:21
 x8                                 x4
F|----------------------------------|-------------------------------|-
C|----------------------------------|-------------------------------|-
G|----------------------------------|-------------------------------|-
C|--0h1-0h1-3p1-0h1-0h1-0h1-3p1-0h1-|x0h1-0h1-3p1-0h1-0h1-0h1-x-x---|-+- MAIN RIFF MODIFED [2:48] 

F|----------------------------|---------------------------|-
C|----------------------------|---------------------------|-
G|-------2--------------------|-------2-------------------|-
C|-0--x3---1-0---0h1-1-x-x-0--|-0--x3---1-0---0h1-1-x--0--|-
   S  SS S S S   S S S S S S    S  SS S S S   S S S S  S

F|----------------------------|---------------------------|----------|-
C|----------------------------|---------------------------|----------|-
G|-------2--------------------|-------2-------------------|-------x--|-
C|-0--x3---1-0---0h1-1-x-x-0--|x0h1x3---1-0---0h1-1-x--0--|-0h1x-----|-
   S  SS S S S   S S S S S S   SS SSS S S S   S S S S  S    S SS  S+- OUTRO [3:46]

F|----------------------------|-----------------------------|-
C|----------------------------|-----------------------------|-
G|-------2--------------------|-------2---------------------|-
C|-0-1h3---1-0---0h1-1-x-x----|x0-1h3---1-0---0h1-1-x-x-x-x-|-

F|----------------------------|-----------------------------|--------------|-
C|----------------------------|-----------------------------|--------------|-
G|-------2--------------------|-------2---------------------|--------2-----|-
C|-0-1h3---1-0---0h1-1-x-x----|x0-1h3---1-0---0h1-1-x-x-x-x-|x-0-1h3---1-0-|-
The main riff is repeated aside from the chorus, modified main riff, 
the outro, and a few
obvious breaks. It should be really easy to follow with the song.

This sounds fairly right, but as always it's impossible to be 100% sure. 
I'll update it if
I find any mistakes.


Текст, аккорды и табулатура для песни "-1", исполняет "Mudvayne".
Используемые в песне аккорды можно найти в разделе Как брать аккорды. Аккорды для шестиструнной гитары. Другие песни можно найти на нашем сайте, воспользовавшись алфавитным указателем вверху страницы.


Слушать онлайн -1


Mudvayne-1 на Яндекс.Музыке


 
Ошибка в тексте? Выделите ошибку и нажмите Ctrl+Enter