(4/4 Time) (Tuning [Low to High]: Eb Ab Db Gb Bb Eb) Intro:
 C# B  F#AbEb
------------------------------------------------------------------|
------------------------------------------------------------------|
------------------------------------------------------------------|
-12-10-5-7-2------------------------------------------------------|
-12-10-5-7-2------------------------------------------------------|
-10--8-3-5-0------------------------------------------------------|
(Guitars 1 and 2)

------------------------------------------------------------------|
------------------------------------------------------------------|
-14---12h14p12----14---------------------------------------------|
---------------14-------------------------------------------------|
------------------------------------------------------------------|
------------------------------------------------------------------|
(Guitar 1) (Guitar 2 Plays Feedback as Does Guitar 1 When Not Playing the
Above Lick)

Verse:
 F#Ab  B C#  F#Ab  B C#  F#Ab    Bb  AbBb
-----------------------------------------------------------------------------|
-----------------------------------------------------------------------------|
-------5/7-7-------5/7-7-----------------------------------------------------|
-5/7-7-5/7-7-5/7-7-5/7-7-5/7-7-7/9-9-7/9-9-9-9-9-8-7-9-8-7--9-8-7-9-8-7------|
-5/7-7-3/5-5-5/7-7-3/5-5-5/7-7-7/9-9-7/9-9-9-9-------------------------------|
-3/5-5-------3/5-5-------3/5-5-5/7-7-5/7-7-7-7-------------------------------|
(Guitars 1 and 2)                           Eb   F#Ab  B C#  F#Ab  B C#  Eb F#Ab  B C#  F#Ab
-----------------------------------------------------------------------------|
-----------------------------------------------------------------------------|
--------------------------%----------5/7-7-------5/7-7----------5/7-7--------|
-9-8-7-9-8-7--9-8-7-9-8-7-2----5/7-7-5/7-7-5/7-7-5/7-7-2--5/7-7-5/7-7-5/7-7--|
--------------------------2----5/7-7-3/5-5-5/7-7-3/5-5-2--5/7-7-3/5-5-5/7-7--|
--------------------------0----3/5-5-------3/5-5-------0--3/5-5-------3/5-7--|
(Guitars 1 and 2) (Last Time Before Interlude, Stop at %, at Ending Play
Until It)  B C#  Eb F#Ab
----------------------------------------------------------------------------|
----------------------------------------------------------------------------|
-5/7-7----------5/7-7-------5/7-7-------------------------------------------|
-5/7-7-2--5/7-7-5/7-7-5/7-7-5/7-7-2-----------------------------------------|
-3/5-5-2--5/7-7-3/5-5-5/7-7-3/5-5-2-----------------------------------------|
-------0--3/5-5-------3/5-5-------0-----------------------------------------|
(Guitars 1 and 2) Solo:
 N.C.
--------10(12)--------------------------------10(12)-12-12(13)-(13)12-------|
-10(12)-----------10----10----10-10(12)-10-----------------------------8h10-|
---------------12----12----12-----------------------------------------------|
----------------------------------------------------------------------------|
----------------------------------------------------------------------------|
----------------------------------------------------------------------------|
(Guitar 1)
----------------------------------------------10(12)-10(12)-10(12)-10(12)---------------|
-10(12)-10(12)-10(12)-10(12)-10(12)-10(12)----------------------------------------------|
----------------------------------------------------------------------------------------|
----------------------------------------------------------------------------------------|
----------------------------------------------------------------------------------------|
----------------------------------------------------------------------------------------|
(Guitar 2) ---------------------10-10-10-10-10-10-10-10-10-10-10-10--------10(12)-------|
-8---8h10p8-8h10--10--------------------------------------------------------------------|
---7-----------------------------------------------------11(14)--------9-11-------------|
----------------------------------------------------------------------------------------|
----------------------------------------------------------------------------------------|
----------------------------------------------------------------------------------------|
(Guitar 1)
-10(12)-10(12)-10(12)-10(12)-8-6-8-6-8-6-8-6-8-6-8-6-8-6--8-10-10(11)-8-6-8-------------|
----------------------------------------------------------------------------------------|
----------------------------------------------------------------------------------------|
----------------------------------------------------------------------------------------|
----------------------------------------------------------------------------------------|
----------------------------------------------------------------------------------------|
(Guitar 2) ---------------------------------------------------------------12----14-12---|
-----$---------------------------------------12-12-12-12-12-12----12--------------------|
-11-11(12)-(12)11-9---9-11-9-11(12)-9-11(12)--------------------------------------------|
----------------------------------------------------------------------------------------|
----------------------------------------------------------------------------------------|
----------------------------------------------------------------------------------------|
(Guitar 1) (Begin w/Wah at $)
-6-8-6----------------------------------------------------------------------------------------------------------|
----------------------------------------------------------------------------------------------------------------|
-------10(12)-9~------------------------------------------------------------------------------------------------|
----------------------------------------------------------------------------------------------------------------|
----------------------------------------------------------------------------------------------------------------|
----------------------------------------------------------------------------------------------------------------|
(Guitar 2) (Then Play Noise For the Remainder of the Solo) --------10(12)---7-----------------12(14)-7----7-7~--|
-12--11-----^------8-10(12)-10(12)----------10------10-8-8-8-8----------8---------------------------------------|
-------------------------^------^---------------------------------9-7-9-----------------------------------------|
----------------------------------------------------------------------------------------------------------------|
----------------------------------------------------------------------------------------------------------------|
----------------------------------------------------------------------------------------------------------------|
(Guitar 1) (^=Tremelo Pick) ----------------------15(16)----------------------11(12)----------------------------|
-8h10p8-11--8h10p8-12-----^--12-8----8-8--10-10-8-----^--10-10-------------------------------------------------|
----------------------------------------------------------^-----------------------------------------------------|
----------------------------------------------------------------------------------------------------------------|
----------------------------------------------------------------------------------------------------------------|
----------------------------------------------------------------------------------------------------------------|
(Guitar 1) Ending:
 N.C.
----------------------------------------------------------------------------|
--------------------10(12)---10(11)------------10-8-10(11)-------------7-8--|
------10(11)---------------------------------------------------10(11)~------|
----------------------------------------------------------------------------|
----------------------------------------------------------------------------|
----------------------------------------------------------------------------|
(Guitar 1)
--------------------------------------------------------------------------------------------------|
--------------10(12)-10(12)~-10(11)-10(11)-10(11)-8----10(11)-----#-------------------------------|
-------10(11)-------------------------------------------------------------------------------------|
-9-8-7--------------------------------------------------------------------------------------------|
--------------------------------------------------------------------------------------------------|
--------------------------------------------------------------------------------------------------|
(Guitar 2) (#=Noise) -----------------------------------------------------------------------------|
-8h10-10--------------------------------------------8--------8-----------------------------------|
------------------------------------7-9~------9-9-------------------------------------------------|
--------------------------------------------------------------------------------------------------|
--------------------------------------------------------------------------------------------------|
--------------------------------------------------------------------------------------------------|
(Guitar 1)
------------------------#-----------10(11)----#-----------------------------|
----------------------------------------------------------------------------|
----------------------------------------------------------------------------|
----------------------------------------------------5--------5-------------|
-4(5)-4(5)-4(5)--4(5)-------------------------------------------------------|
----------------------------------------------------------------------------|
(Guitar 2)


Текст, аккорды и табулатура для песни "In N Out Of Grace", исполняет "Mudhoney".
Используемые в песне аккорды можно найти в разделе Как брать аккорды. Аккорды для шестиструнной гитары. Другие песни можно найти на нашем сайте, воспользовавшись алфавитным указателем вверху страницы.


 
Ошибка в тексте? Выделите ошибку и нажмите Ctrl+Enter