-----------------------------------------------------------------------------
                    The Remedy (I Won't Worry) - Jason Mraz
-----------------------------------------------------------------------------
Tabbed by: Mike Ramon
Email: [email protected]

INTRO
Gtr 1 (w/ var. effects)                       repeat once first time only
e|-8-----8------|-8-------------|-10-----8------|-10-----8-*----|
B|----6----6----|----6------6---|-----6----6----|-----6----6----|
G|--------------|---------------|---------------|------------*--|
D|-----------8--|-------7-8---8-|------------8--|------------8--|
A|--------------|---------------|---------------|---------------|
E|--------------|---------------|---------------|---------------|
Gtr 2 (clean acous)                                       * * * repeat once
e|-3--3--3-x-3--|-1--1--1-x-1-1-|-3--3--3-x-3-3-|-1--1--1-x-1-1-|
B|-3--3--3-x-3--|-1--1--1-x-1-1-|-3--3--3-x-3-3-|-1--1--1-x-1-1-|
G|-4--4--5-x-5--|-2--2--3-x-3-3-|-4--4--5-x-5-5-|-2--2--3-x-3-3-|
D|-5--5--5-x-5--|-3--3--3-x-3-3-|-5--5--5-x-5-5-|-3--3--3-x-3-3-|
A|-5--5--3-x-3--|-3--3--1-x-1-1-|-5--5--3-x-3-3-|-3--3--1-x-1-1-|
E|-3--3--3-x-3--|-1--1--1-x-1-1-|-3--3--3-x-3-3-|-1--1--1-x-1-1-|
                                                       *don't play 2nd time

VERSE
e|--3--3--3-x-3--|-1--1--1-x-1-1-|-3--3--3-x-3-3-|-1--1--1-x-1-1-|
B|--3--3--3-x-3--|-1--1--1-x-1-1-|-3--3--3-x-3-3-|-1--1--1-x-1-1-|
G|o-4--4--5-x-5--|-2--2--3-x-3-2-|-4--4--5-x-5-5-|-2--2--3-x-3-2-|
D|o-5--5--5-x-5--|-3--3--3-x-3-3-|-5--5--5-x-5-5-|-3--3--3-x-3-3-|
A|--5--5--3-x-3--|-3--3--1-x-1-3-|-5--5--3-x-3-3-|-3--3--1-x-1-3-|
E|--3--3--3-x-3--|-1--1--1-x-1-1-|-3--3--3-x-3-3-|-1--1--1-x-1-1-|
                                                  
e|-3--3--3-x-3--|-1--1--1-x-1-1-|-3--3--3-x-3-3-|-1-------------|
B|-3--3--3-x-3--|-1--1--1-x-1-1-|-3--3--3-x-3-3-|-1-------------|
G|-4--4--5-x-5--|-2--2--3-x-3-3-|-4--4--5-x-5-5-|-2---rest-----o|
D|-5--5--5-x-5--|-3--3--3-x-3-3-|-5--5--5-x-5-5-|-3------------o|
A|-5--5--3-x-3--|-3--3--1-x-1-1-|-5--5--3-x-3-3-|-3-------------|
E|-3--3--3-x-3--|-1--1--1-x-1-1-|-3--3--3-x-3-3-|-1-------------|
                                                  .
CHORUS                                                                       
e|--6--6--6-x-6-6-|-8--8--8--x-8--8--|-10--10--5-x-5-5-|-6--6--8--x-8--8---|
B|--6--6--6-x-6-6-|-8--8--8--x-8--8--|-10--10--5-x-5-5-|-6--6--8--x-8--8---|
G|o-7--7--8-x-8-8-|-10-10-10-x-10-10-|-12--12--7-x-7-7-|-8--8--10-x-10-10-o|
D|o-8--8--8-x-8-8-|-10-10-10-x-10-10-|-12--12--7-x-7-7-|-8--8--10-x-10-10-o|
A|--8--8--6-x-6-6-|-8--8--8--x-8--8--|-10--10--5-x-5-5-|-6--6--8--x-8--8---|
E|--6--6--6-x-6-6-|-8--8--8--x-8--8--|-10--10--5-x-5-5-|-6--6--8--x-8--8---|

BRIDGE
e|----6-----6--|----6-----6--|----6-----6--|----8-----8--|
B|-6-----6-----|-6-----6-----|-6-----6-----|-6-----6-----|
G|o------------|-------------|-------------|------------o|
D|o------------|-------------|-------------|------------o|
A|-------------|-------------|-------------|-------------|
E|-------------|-------------|-------------|-------------|

e|-3--3--3-x-3--|-1--1--1-x-1-1-|-3--3--3-x-3-3-|-1--1--1-x-1-1-|
B|-3--3--3-x-3--|-1--1--1-x-1-1-|-3--3--3-x-3-3-|-1--1--1-x-1-1-|
G|-4--4--5-x-5--|-2--2--3-x-3-2-|-4--4--5-x-5-5-|-2--2--3-x-3-2-|
D|-5--5--5-x-5--|-3--3--3-x-3-3-|-5--5--5-x-5-5-|-3--3--3-x-3-3-|
A|-5--5--3-x-3--|-3--3--1-x-1-3-|-5--5--3-x-3-3-|-3--3--1-x-1-3-|
E|-3--3--3-x-3--|-1--1--1-x-1-1-|-3--3--3-x-3-3-|-1--1--1-x-1-1-|
                                                  
e|-3--3--3-x-3--|-1--1--1-x-1-1-|-3--3--3-x-3-3-|-1-------------|
B|-3--3--3-x-3--|-1--1--1-x-1-1-|-3--3--3-x-3-3-|-1-------------|
G|-4--4--5-x-5--|-2--2--3-x-3-3-|-4--4--5-x-5-5-|-2---rest------|
D|-5--5--5-x-5--|-3--3--3-x-3-3-|-5--5--5-x-5-5-|-3-------------|
A|-5--5--3-x-3--|-3--3--1-x-1-1-|-5--5--3-x-3-3-|-3-------------|
E|-3--3--3-x-3--|-1--1--1-x-1-1-|-3--3--3-x-3-3-|-1-------------|

CHORUS                                                                       
e|--6--6--6-x-6-6-|-8--8--8--x-8--8--|-10--10--5-x-5-5-|-6--6--8--x-8--8---|
B|--6--6--6-x-6-6-|-8--8--8--x-8--8--|-10--10--5-x-5-5-|-6--6--8--x-8--8---|
G|o-7--7--8-x-8-8-|-10-10-10-x-10-10-|-12--12--7-x-7-7-|-8--8--10-x-10-10-o|
D|o-8--8--8-x-8-8-|-10-10-10-x-10-10-|-12--12--7-x-7-7-|-8--8--10-x-10-10-o|
A|--8--8--6-x-6-6-|-8--8--8--x-8--8--|-10--10--5-x-5-5-|-6--6--8--x-8--8---|
E|--6--6--6-x-6-6-|-8--8--8--x-8--8--|-10--10--5-x-5-5-|-6--6--8--x-8--8---|

| /  slide up
|   slide down
| h  hammer-on
| p  pull-off
| ~  vibrato
| +  harmonic
| x  Mute note

=============================================================================


Текст, аккорды и табулатура для песни "The Remedy", исполняет "Mraz Jason".
Используемые в песне аккорды можно найти в разделе Как брать аккорды. Аккорды для шестиструнной гитары. Другие песни можно найти на нашем сайте, воспользовавшись алфавитным указателем вверху страницы.


Слушать онлайн The Remedy [In the Style of Jason Mraz]


The Karaoke UniverseThe Remedy [In the Style of Jason Mraz] на Яндекс.Музыке


 
Ошибка в тексте? Выделите ошибку и нажмите Ctrl+Enter