#----------------------------------PLEASE NOTE---------------------------------#
#This file is the author's own work and represents their interpretation of the #
#song. You may only use this file for private study, scholarship, or research. #
#------------------------------------------------------------------------------##
From: [email protected] (Judy Letostak)

Wolfgang Amadeus Mozart
Quartet No.14 in G Major
[email protected]

[email protected]-----------|
|----------15-13-12-------|-------15-13-12-15-------|----------15-13-12-----|
|-------------------14-12-|-11h14-------------------|------------------14-12|
|-------------------------|-------------------------|-----------------------|
|-------------------------|-------------------------|-----------------------|
|-------------------------|-------------------------|-----------------------|


|-------------------15-14-|-15p14-12----12----------|----------------------|
|-------15-13-12-15-------|----------15----15-13-12-|-----15---------------|
|-11h14-------------------|-------------------------|-14------12-----------|
|-------------------------|-------------------------|----------------------|
|-------------------------|-------------------------|----------------------|
|-------------------------|-------------------------|----------------------|


|-20-19-17----------------|-------15-------15-20-19-|20-19-17---------------|
|----------20-18-17-------|----------19-17----------|---------20-18-17------|
|-------------------19-17-|-16h19-------------------|------------------19-17|
|-------------------------|-------------------------|-----------------------|
|-------------------------|-------------------------|-----------------------|
|-------------------------|-------------------------|-----------------------|


|-------15-------15-20-19-|-20-19-17----17----------|----------------------|
|----------19-17----------|----------20----20-18-17-|-----20---------------|
|-16-19-------------------|-------------------------|-19------17-----------|
|-------------------------|-------------------------|----------------------|
|-------------------------|-------------------------|----------------------|
|-------------------------|-------------------------|----------------------|


Текст, аккорды и табулатура для песни "Quartet 1", исполняет "Mozart Wolfgang Amadeus".
Используемые в песне аккорды можно найти в разделе Как брать аккорды. Аккорды для шестиструнной гитары. Другие песни можно найти на нашем сайте, воспользовавшись алфавитным указателем вверху страницы.


 
Ошибка в тексте? Выделите ошибку и нажмите Ctrl+Enter