#----------------------------------PLEASE NOTE---------------------------------#
#This file is the author's own work and represents their interpretation of the #
#song. You may only use this file for private study, scholarship, or research. #
#------------------------------------------------------------------------------##
From: [email protected] (Judy Letostak)

Wolfgang Amadeus Mozart
Quartet No.15 in D Minor
[email protected]


[email protected]-17-------|
|---------|-15---14-15--18---17-15--|-14---15-17---------------------------|
|--14-----|-------------------------|--------------14----------------------|
|---------|-------------------------|--------------------------------------|
|---------|-------------------------|--------------------------------------|
|---------|-------------------------|--------------------------------------|


|-17----17-17-17-----17-17-|-17---------------|---------15---15------------|
|--------------------------|-------17---------|-17---18-----------18-17----|
|--------------------------|--------------14--|----------------------------|
|--------------------------|------------------|----------------------------|
|--------------------------|------------------|----------------------------|
|--------------------------|------------------|----------------------------|


|-17---------------------22-22-|-22-----22-22-22-----22-22-|-22------------|
|-------18-15---15-------------|---------------------------|---------------|
|------------------------------|---------------------------|--------19-----|
|------------------------------|---------------------------|---------------|
|------------------------------|---------------------------|---------------|
|------------------------------|---------------------------|---------------|


|-----------|-------------------------17----------22-|
|-----------|-------------18----------------18-------|
|-----------|-19----------------19-------------------|
|-19--------|-------19-------------------------------|
|-----------|----------------------------------------|
|-----------|----------------------------------------|


Текст, аккорды и табулатура для песни "Quartet 1", исполняет "Mozart Wolfgang Amadeus".
Используемые в песне аккорды можно найти в разделе Как брать аккорды. Аккорды для шестиструнной гитары. Другие песни можно найти на нашем сайте, воспользовавшись алфавитным указателем вверху страницы.


 
Ошибка в тексте? Выделите ошибку и нажмите Ctrl+Enter