M O T ? R H E A D
                        WE ARE MOTORHEAD (2:21)
                       (Kilmister/Campbell/Lee)


Tune to Eb.

Intro/Verse
-------------------|
-2-0-2-00-2-0-2-00-|
-------------------|
-------------------|

Pre
------------|
------------|
------------|
-5---0-0-0--|

Chorus
-------------------|
-------------------|
-3----5------------|
-------------------|

Solo
-----------------------|
-----------------------|
-2-2-2-2-2-------------|
------------2-2-2-2-2--|

-------------------|
-------------------|
-5------7----------|
-------------------|

Ending
----------|
----------|
-7-5--7---|
----------|

[email protected]


Текст, аккорды и табулатура для песни "We Are Motorhead", исполняет "Motorhead".
Используемые в песне аккорды можно найти в разделе Как брать аккорды. Аккорды для шестиструнной гитары. Другие песни можно найти на нашем сайте, воспользовавшись алфавитным указателем вверху страницы.


 
Ошибка в тексте? Выделите ошибку и нажмите Ctrl+Enter