W A K E  U P  D E A D
                                   M O T ? R H E A D
                                       (5:14)

Intro/Verse
-----------|
-----------|
-----------|
-0---------|
 Let Ring


Pre
-------------------------------|
-------------------------------|
-5/7-7---7-------5/7-7---7-----|
-------0----0-0--------0----1--|

Chorus
---------------------------------|
---------------------------------|
----------------------------3-2--|
-0---3-5*--3-1--0-1-0-1-0-1------|
                Fast Lemmy style
Note, the second time on chorus, play * twice.

--------------|
--------------|
-5-7-7-7-7-7--|
--------------|
 Also fast...


Now the bridge, Lemmy?s kind of improvising.... At least it sounds like it... but just
play the chords E (high on 7th) and D...

End of Bridge
----------------------|--------------------------|
------5-------5-------|--------------------------|
--5-7---7-5-7---7-----|-7-7-7-7-7-----7-7-7-7-7--|
----------------------|--------------------------|


Ending of song
------------------------------------|
------------------------------------|
-7-5-7-7-5-7-7-5-7-1----5-5-5-5-5-5-|
------------------------------------|

sorry, I missed the fast breakdown... [email protected]


Текст, аккорды и табулатура для песни "Wake The Dead", исполняет "Motorhead".
Используемые в песне аккорды можно найти в разделе Как брать аккорды. Аккорды для шестиструнной гитары. Другие песни можно найти на нашем сайте, воспользовавшись алфавитным указателем вверху страницы.


 
Ошибка в тексте? Выделите ошибку и нажмите Ctrl+Enter