Artist: Motorhead
Song: The One To Sing The Blues
Album: 1916
Tabbed By: Menno Roymans (the doctor)
Tuning: Eb

Riff 1:
Eb F       Ab F       Eb F
------------------------------
------------------------------
-9/11-xxxx-1411-xxxx-9/11----
-9/11-xxxx-1411-xxxx-9/11----drumroll
-6/9--xxxx-129--xxxx-6/9-----
------------------------------

repeat 4 times


Riff 2:
Ab Bb	  Db Bb	   Ab Bb     Ab
-------------------------------------
-------------------------------------
-------------------------------------
-7/9-xxxx-129-xxxx-7/9-xxxx-7-------
-7/9-xxxx-129-xxxx-7/9-xxxx-7-------
-5/7-xxxx-107-xxxx-5/7-xxxx-5/7~~---

repeat 4 times


Riff 3:
Ab    Db   Eb
------------------
------------------
------7----9------
-7----7----9------
-7----5----7------
-5----------------

repeat Riff 2
repeat Riff 3
repeat Riff 1 (2x), but instead of the drumroll play the last two chords again.

repeat Riff 2 (2x), but instead of the last two chords there's a drumroll


Riff 2:
Ab Bb	  Db Bb	   Ab Bb     Ab
-------------------------------------
-------------------------------------
-------------------------------------
-7/9-xxxx-129-xxxx-7/9-xxxx-7-------
-7/9-xxxx-129-xxxx-7/9-xxxx-7-------
-5/7-xxxx-107-xxxx-5/7-xxxx-5/7~~---

repeat 4 times


Riff 3:
Ab    Db   Eb
------------------
------------------
------7----9------
-7----7----9------
-7----5----7------
-5----------------

repeat Riff 2
repeat Riff 3
repeat Riff 1 (2x), but instead of the drumroll play the last two chords again.


Under the solo guitar 2 plays:
 Bb   Ab   Db   Eb
---------------------
---------------------
-----------7----9----
-9----7----7----9---- three times
-9----7----5----7----
-7----5--------------

then strum Eb for two measures

repeat Riff 2 (2x), but instead of the last two chords there's a drumroll


Riff 2:
Ab Bb	  Db Bb	   Ab Bb     Ab
-------------------------------------
-------------------------------------
-------------------------------------
-7/9-xxxx-129-xxxx-7/9-xxxx-7-------
-7/9-xxxx-129-xxxx-7/9-xxxx-7-------
-5/7-xxxx-107-xxxx-5/7-xxxx-5/7~~---

repeat 4 times


Riff 3:
Ab    Db   Eb
------------------
------------------
------7----9------
-7----7----9------
-7----5----7------
-5----------------

repeat Riff 2
repeat Riff 3
repeat Riff 1 (2x), but instead of the drumroll play the last two chords again.


Under the solo guitar 2 plays:
 Bb   Ab   Db   Eb
---------------------
---------------------
-----------7----9----
-9----7----7----9---- three times
-9----7----5----7----
-7----5--------------

then strum Eb for two measures

repeat this and end with:

Ab Bb	  Db Bb	   Ab Bb    Ab Eb
-------------------------------------
-------------------------------------
-------------------------------------
-7/9-xxxx-129-xxxx-7/9-xxxx-7/9-----
-7/9-xxxx-129-xxxx-7/9-xxxx-7/9-----
-5/7-xxxx-107-xxxx-5/7-xxxx-5/7-----


Thats it in correct order. Have fun and if you want to contact me about this tab
email me at [email protected] or pm me at the forum (the doctor)


Текст, аккорды и табулатура для песни "The One To Sing The Blues", исполняет "Motorhead".
Используемые в песне аккорды можно найти в разделе Как брать аккорды. Аккорды для шестиструнной гитары. Другие песни можно найти на нашем сайте, воспользовавшись алфавитным указателем вверху страницы.


 
Ошибка в тексте? Выделите ошибку и нажмите Ctrl+Enter