Motorhead - The Game (Triple H Theme Song - WWF)
Tuning - Eb-Ab-Db-Gb-Bb-Eb
tabbed by Emilio ([email protected])

(12) - harmonic

This song is pretty easy.
These are all the rhythm riffs.
Figure out the timing and the order on your own.
I haven't figured out the lead riffs yet.

Riff 1
Eb|-------------------------------------------------------------|
Bb|-------------------------------------------------------------|
Gb|-------------------------------------------------------------|
Db|-------------------------------------------------------------|
Ab|--2-~------2-~------2-2-~------2-~---------------------------|
Eb|--0--------0--------0-0--------0---------121----------------|

Riff 2
Eb|-------------------------------------------------------------|
Bb|-------------------------------------------------------------|
Gb|-------------------------------------------------------------|
Db|-------------------------------------------------------------|
Ab|--222--222----222--222----222--222----222--222---------------|
Eb|--000--000----000--000----000--000----000--000------121-----|

lead part in at about (0:15)
Eb|-------------------------------------------------------------|
Bb|--(12-12-12)--(12-12-12)------------------------------------|
Gb|--(12-12-12)--(12-12-12)------------------------------------|
Db|--(12-12-12)--(12-12-12)------------------------------------|
Ab|-------------------------------------------------------------|
Eb|-------------------------------------------------------------|

Riff 3
Eb|----------------------------------------------------------------|
Bb|----------------------------------------------------------------|
Gb|----------------------------------------------------------------|
Db|----------------------------------------------------------------|
Ab|--22-5-4--222-5-7--22-5-4--222-5-7--22-5-4--222-5-7--22-5-4-----|
Eb|--00-3-2--000-3-5--00-3-2--000-3-5--00-3-2--000-3-5--00-3-2-----|

Riff 4
Eb|-------------------------------------------------------------|
Bb|-------------------------------------------------------------|
Gb|-------------------------------------------------------------|
Db|-------------------------------------------------------------|
Ab|--2-5-7--2-7-5--2-5-7--2-7-5--2-5-7--2-7-5--2-5-7--2-7-5-----|
Eb|--0-3-5--0-5-3--0-3-5--0-5-3--0-3-5--0-5-3--0-3-5--0-5-3-----|

Riff 5
Eb|-------------------------------------------------------------|
Bb|-------------------------------------------------------------|
Gb|-------------------------------------------------------------|
Db|-------------------------------------------------------------|
Ab|--222--8---222--8b9r8--8-------------------------------------|
Eb|--000--6---000--6b7r6--6-------------------------------------|

high squealing parts during Riff 5
Eb|---18~~--14~~---|
Bb|----------------|
Gb|----------------|
Db|----------------|
Ab|----------------|
Eb|----------------|


Текст, аккорды и табулатура для песни "The Game", исполняет "Motorhead".
Используемые в песне аккорды можно найти в разделе Как брать аккорды. Аккорды для шестиструнной гитары. Другие песни можно найти на нашем сайте, воспользовавшись алфавитным указателем вверху страницы.


 
Ошибка в тексте? Выделите ошибку и нажмите Ctrl+Enter