Motorhead – The Chase is Better Than the Catch

Intro
G|--------------------|------------------------|
D|--------------------|---------------5--------|
A|--------------------|-----------------5-3-5--|
E|--------------------|------------------------|

Riff 1
G|----------------------------|------------------------------|
D|----------------------------|---------------5--------------|
A|-7-7-7-7-7-7-7-3-5--5-5-5-5-|-7-7-7-7-7-7-7-----5---3---5--|
E|----------------------------|------------------------------|

Verse
G|------------------------------------------------------|
D|---------5-7----------5-7----------5-7----------------|
A|-7-7-7-7------7-7-7-7------7-7-7-7-------3-5--5-5-5-5-|
E|------------------------------------------------------|

Chorus
G|-------------------5-------|-------------------5-------|
D|---------------------7-5-7-|---------------------7-5-7-|
A|-0-0-0-0-0-0-0-0-0---------|-0-0-0-0-0-0-0-0-0---------|
E|---------------------------|---------------------------|


G|-------------------------------|-------------------------------|
D|-3-3-3-3-3-3-3-3-3--5--5--5--5-|-3-3-3-3-3-3-3-3-3--5--5--5--5-|
A|-------------------------------|-------------------------------|
E|-------------------------------|-------------------------------|

G|-------------------------------|-------------------------------|
D|-3-3-3-3-3-3-3-3-3--5--5--5--5-|-3-3-3-3-3-3-3-3-3--5--5--5--5-|
A|-------------------------------|-------------------------------|
E|-------------------------------|-------------------------------|

Bridge (at 3:02)
Bass 
G|-------------7-9-7-------------------------------|--------|
D|-----------9-------9-7-5-7-5---------5--6--7-8-9-|--------|
A|-7-7-7-7-7-------------------7-7-----------------|-riff 1-|
E|-------------------------------------------------|--------|


Текст, аккорды и табулатура для песни "The Chase Is Better Than The Catch", исполняет "Motorhead".
Используемые в песне аккорды можно найти в разделе Как брать аккорды. Аккорды для шестиструнной гитары. Другие песни можно найти на нашем сайте, воспользовавшись алфавитным указателем вверху страницы.


 
Ошибка в тексте? Выделите ошибку и нажмите Ctrl+Enter