MOTORHEAD - Rock 'N Roll 
play Intro x4      
and Verse x2 

e|-----------| |-----------| 
B|-----------| |-----------| 
G|-7-9-------| |-7-9-------| 
D|-7-9-------| |-7-9-------| 
A|-5-7-------| |-5-7-------| 
E|-----------| |-----------|  

Pre-chorus 
e|-----------|-----------|-----------|-----------| 
B|-----------|-----------|-----------|-----------| 
G|-9---------|-----------|-5---------|-7---------| 
D|-9---------|-7---------|-5---------|-7---------| 
A|-7---------|-7---------|-3---------|-5---------| 
E|-----------|-5---------|-----------|-----------|  

Chorus (x2)                                        
Last time  
e|-----------|-----------|-----------|-----------| |-let---| 
B|-----------|-----------|-----------|-----------| |-ring--| 
G|-----------|-----------|-----------|-----------| |-------| 
D|-99-999-99-|-----------|-55-555-55-|-77-777-77-| |-7-----| 
A|-77-777-77-|-77-777-77-|-33-333-33-|-55-555-55-| |-7-----| 
E|-----------|-55-555-55-|-----------|-----------| |-5-----|    

1st Solo (backing is composed of verse/prechorus/chorus)  
there's  some missing stuff cause it was too fast to tab, 
but worth it USE TYPING IN HERE
e|---------------------------------------------| 
B|---------------------------------------------| 
G|---------------------------------------------| 
D|-7-8-10--7-8-10--(10 times)-~------------|
A|---------------------------------------------| 
E|---------------------------------------------|  

e|---------------------------------------------| 
B|-/-10b(12)----r(10)-8------------------------|
G|----------------------9---7------------------| 
D|----------------------------9---7-5---7-5----| 
A|------------------------------------------7~-|
E|---------------------------------------------|  

e|-------------------------------------------------------------| 
B|-------------------------------------------------------------| 
G|-----------12p9-12p9------12p9-12p9------12p9------12p9-12p9-| 
D|-12p9-12p9-----------12p9-----------12p9------12p9-----------| 
A|-------------------------------------------------------------| 
E|-------------------------------------------------------------| 

e|-------------------------------------------------------------| 
B|-------------------------------------------------------------| 
G|------12p9-12p9------12p9------12p9-12p9------12p9-12p9------| 
D|-12p9-----------12p9------12p9-----------12p9-----------12p9-| 
A|-------------------------------------------------------------| 
E|-------------------------------------------------------------| 

e|--------------------------------12-12---------12-12------------| 
B|----------------------------------------------------[-stuff-]--| 
G|------------------------15b(17)-------15b(17)-------[missing]--| 
D|-7b(9)-----r(7)-~-------------------------------------------| 
A|---------------------------------------------------------------| 
E|---------------------------------------------------------------|   

[1:49] 
e|-17b(19)~--17b(19)--17b(19)-17b(19)-17b(19)-19(21)-19b(21)-----| 
B|---------------------------------------------------------------| 
G|---------------------------------------------------------------| 
D|---------------------------------------------------------------| 
A|---------------------------------------------------------------| 
E|---------------------------------------------------------------|  

e|19(21)-19b(21)--17--15-14-15-17-15-14-12~-/23b(24)~-23b(24)~-23b(24)~-| 
B|-----------------------------------------------------------------------| 
G|-----------------------------------------------------------------------| 
D|-----------------------------------------------------------------------| 
A|-----------------------------------------------------------------------| 
E|-----------------------------------------------------------------------|  

D|------------------x------------12---| 
A|-10h12p10h12etc.--x--------12--------|                                    
E|-------------------------12----------|

it was fuckin hard to tab this solo, and a part of it is missing, 
if you tab the second solo, just add it  :)


Текст, аккорды и табулатура для песни "Rock N Roll", исполняет "Motorhead".
Используемые в песне аккорды можно найти в разделе Как брать аккорды. Аккорды для шестиструнной гитары. Другие песни можно найти на нашем сайте, воспользовавшись алфавитным указателем вверху страницы.


 
Ошибка в тексте? Выделите ошибку и нажмите Ctrl+Enter