Motorhead-Love me forever
tabbed by guillermo Luppi ([email protected])

Tuning: 6=Db, 5=Ab, 4=Db, 3=Gb, 2=Bb, 1=Eb 

Intro and Verse(I think That somethin fails in here)
                   (repeatx3)             Last Time
e|-------------------------|---------------------|
B|-------------------------|---------------------|
G|-------------------------|---------------------|
D|-----2-3-2-------2-3-2---|-----2-3-2--------2--|
A|---0-------0---0-------0-|---0-------0----0----|
E|-0-----------2-----------|-0------------2------|

Pre-Chorus
e|-------------------|-------------------|
B|-------------------|-------------------|
G|-2---2---2---2-2-2-|-2---2---2---2-5-6-|
D|-2---2---2---2-2-2-|-2---2---2---2-5-6-|
A|-0---0---0---0-0-0-|-0---0---0---0-3-4-|
E|-------------------|-------------------|


Chorus
e|---------------------------------------|
B|---------------------------------------|
G|----7--5--3-5--7---5--3--5--7--5--3----|
D|----7--5--3-5--7---5--3--5--7--5--3----|
A|----5--3--1-3--5---3--1--3--5--3--1----|
E|---------------------------------------|
these parts are when lemmy sings   Everything changes, it all stays the same 
                                   Every way out brings you back to the start   

e|-----------------------------------|
B|-----------------------------------|
G|-5-----7--5------------------------|
D|-5--5--7--5------------------------|
A|-3--5--5--3------------------------|
E|----3------------------------------|
these parts are when lemmy sings     Everyone guilty,  no one to blame
                                    Everyone dies to break somebody's heart

End of chorus (once first time, twice all other times)
e|----------------|
B|----------------|
G|----5------5----|
D|----5------5----|
A|----3------3----|
E|----------------|

Second solo, which is QUITE right
----------------------------------------------
----------------------------------------------
-12^14^12^14^12^14-12^14^12^14^12^14----------
----------------------------------------------
----------------------------------------------
----------------------------------------------

----------------------------------------------
----------------------------------------------
12^14^12^14-12^14^12-10-12--12-10----10-------
------------------------------------12-----12-
----------------------------------------------
----------------------------------------------

-------------------------13-------------------
------15-13-15--15-13-------15-13-15-13-------
--/14-----------------14----------------14-12-
----------------------------------------------
----------------------------------------------
----------------------------------------------

----------------------------------------------
--------------------18^20-18~-(18)-18^20-18-18
(9)-10-12-10-9-9~----------------------------
----------------------------------------------
----------------------------------------------
----------------------------------------------

----------------------------------------------
18^20-18~-18-15-18-17-15----------------------
------------------------17-17b19~/12-14-12-10
----------------------------------------------
----------------------------------------------
----------------------------------------------

----------------------------------------------
----------------------------------------------
----10-----10-----10-----10-----10-----10-/12
/12----/12----/12----/12----/12----/12--------
----------------------------------------------
----------------------------------------------

-------------------------/(10)-10-10-10-10(8)
-------------------------/(10)-10-10-10-10(8)
10/1210/12-12b14-12~------------------------
----------------------------------------------
----------------------------------------------
----------------------------------------------

8-8-8/(10)-10(8)-8-8-8/(10)/(13)-13(10)-10--
8-8-8/(10)-10(8)-8-8-8/(10)/(13)-13(10)-10--
----------------------------------------------
----------------------------------------------
----------------------------------------------
----------------------------------------------


----------------------------------------------
-18^20-18--18-15--------------------15-13-----
-----------------17-(17)^19^17^19---------15--
----------------------------------------------
----------------------------------------------
----------------------------------------------

--------------------------------12-------12---
-----------------------------------13------13-
14^15^14-12-14-12-12-14-15/17--------14------
----------------------------------------------
----------------------------------------------
----------------------------------------------

----12-------------12-------12-------15^17-15-
-------13-------------13-------13-------------
-14-------14-12~---------14-------14----------
----------------------------------------------
----------------------------------------------
----------------------------------------------

--17^15-13-15----15---13---12----------------
-------------------------------13^15--15-13---
--------------------------------------------14
----------------------------------------------
----------------------------------------------
----------------------------------------------

    
----------------------------------------------
----------------------------------------------
12^14^-12--10-12^14^12-10-12-----------------
----------------------------------------------
----------------------------------------------
----------------------------------------------

Solo backing is same as chorus
I think There's no mistakes in this tab, this took me days so...
I hope it's perfect Enjoy :)


Текст, аккорды и табулатура для песни "Love Me Forever", исполняет "Motorhead".
Используемые в песне аккорды можно найти в разделе Как брать аккорды. Аккорды для шестиструнной гитары. Другие песни можно найти на нашем сайте, воспользовавшись алфавитным указателем вверху страницы.


 
Ошибка в тексте? Выделите ошибку и нажмите Ctrl+Enter