Artist: Motorhead
Song: All the Aces
Album: Bomber
Tabbed By: Menno Roymans (the doctor)
Tuning: Eb

Riff one:
      Gb	Gb
------------------------|
------------------------|
------12-------1212-----| play 8 times
------12-------1212-----|
------10-------1010-----|
-0000----0-000----------|


Riff two:

------------------------|
------------------------|
------------------------| play 4 times
--------5---------------|
-5h7-77---7-777-----5---|
----------------5h7-----|


Riff three:
 F       Bb
--------------|
--------------|
----------4---| play 4 times
-4-4-xx-4-4---|
-4-4-xx-4-2---|
-2-2-xx-2-----|


Riff four:

--------------------------------------------------- |
--------------------------------------------------- |
-------------------4bu5--------------------6bu7---- |
-4h7-7-4h7-7-4h7-7-------6h9-9-6h9-9-6h9-9--------- |
--------------------------------------------------- |
--------------------------------------------------- |
						    { play 1 time
--------------------------------------------------- |
--------------------------------------------------- |
-------------------------9bu10-9----------10------- |
-9h12-12-9h12-12-9h12-12---------12-10-12----12---- |
--------------------------------------------------- |
--------------------------------------------------- |

then play:
4x Riff one
4X Riff two
4x Riff three
1x Riff four

Under solo strum:
 Gb  F  Eb F
-------------|
-------------|
-------------| play 4 times
-5---4--2--4-|
-5---4--2--4-|
-3---2--0--2-|

then play:
4x Riff three

then:
 Ab  Bb  Db  Db
------------------|
------------------|
------------------|
-7---9---12--12---|
-7---9---12--12---|
-5---7---10--10---|

then play:
4x Riff one
4X Riff two
4x Riff three
1x Riff four

Under solo play:
 Gb  F   Eb F
-----------------|
-----------------|
-12--11--9--11---| play 'till fade
-12--11--9--11---|
-10--9---7--9----|
-----------------|

That's it, for comments mail to [email protected]


Текст, аккорды и табулатура для песни "All The Aces", исполняет "Motorhead".
Используемые в песне аккорды можно найти в разделе Как брать аккорды. Аккорды для шестиструнной гитары. Другие песни можно найти на нашем сайте, воспользовавшись алфавитным указателем вверху страницы.


 
Ошибка в тексте? Выделите ошибку и нажмите Ctrl+Enter