hey_driver.tabsong: hey driver
band: motor ace
album: five star laundry
Tabbed by: [email protected]

tunning: D,a,d,G,B,e

intro A
e-----------------------------------------------
B-----------------------------------------------
G-----------------------------------------------
d-----------------------------------0-0h2-------
A---------------------------0h2-0h2-------------
D-0h2-2-2-2-2-2-2-2-2-2-2-2---------------------

cont
e----------------------------------------
B----------------------------------------
G----------------------------------------(i lst count, but round about 10 or 12 times)
d----------------------------0-0h2-------
A--------------------0h2-0h2-------------
D-0h2-2-2-2-2-2-2-2----------------------intro B

e-------------------------------3-3-3---------
B-------------------------------3-3-3---------
G-------------------------------0-0-0---------
d-------------0h2-2-2-0h-2-2-2--2-2-2---------x4(obviuosly without pickslide sirst time only)
A-------------0h2-2-2-0h-2-2-2--3-3-3---------
D-pick slide--0h2-2-2-0h-2-2-2----------------


verse:palm muted

e-----------------------------------           --3-3--2-2-------------------------------
B-----------------------------------           --3-3--3-3-------------------------------
G-----------------------------------           --0-0--2-2-------------------------------
d---------------------2-2-2---------   1       --2-2--0-0-------------------------------
A---0h2-2-2-0h-2-2-2--3-3-3---------and a half --3-3------------------------------------
D---0h2-2-2-0h-2-2-2----------------then       -----------------------------------------


verse break
e-----------------------------------
B-----------------------------------
G----------------------------------- 
d---------------------7-7-7-7------- 
A---0h2-2-2-0h-2-2-2----------------
D---0h2-2-2-0h-2-2-2----------------

verse


e-----------------------------------           --3-3--2-2---3-3-2-2-2--3-3--2-2-----
B-----------------------------------           --3-3--3-3---3-3-3-3-3--3-3--3-3-----
G-----------------------------------           --0-0--2-2---0-0-2-2-2--0-0--2-2-----
d---------------------2-2-2---------   1       --2-2--0-0---2-2-0-0-0--2-2--0-0-----
A---0h2-2-2-0h-2-2-2--3-3-3---------and a half --3-3--------3-3--------3-3----------
D---0h2-2-2-0h-2-2-2----------------then       -------------------------------------chorus:
Guitar 1
e--------------------3-3-3-3---2-2-2-2----------------------------
B--------------------3-3-3-3---3-3-3-3----------------------------
G--------------------0-0-0-0---2-2-2-2----------------------------
d-2-2-2-2----5-5-5-5-2-2-2-2---0-0-0-0----------------------------x4
A-2-2-2-2----5-5-5-5-3-3-3-3---0-0-0-0----------------------------
D-2-2-2-2----5-5-5-5-----------0-0-0-0----------------------------

Guitar 2
e----------------------------------------------
B--10/8-8-8-8-8t10r8t10/12/10-8----------------
G---0-0-0-0-0-0--0-0--0--0--0-0----------------
d----------------------------------------------x8
A----------------------------------------------
D----------------------------------------------


intro B

e---------------------3-3-3---------
B---------------------3-3-3---------
G---------------------0-0-0---------
d---0h2-2-2-0h-2-2-2--2-2-2---------x4
A---0h2-2-2-0h-2-2-2--3-3-3---------
D---0h2-2-2-0h-2-2-2----------------


verse:palm muted

e-----------------------------------           --3-3--2-2-------------------------------
B-----------------------------------           --3-3--3-3-------------------------------
G-----------------------------------           --0-0--2-2-------------------------------
d---------------------2-2-2---------   1       --2-2--0-0-------------------------------
A---0h2-2-2-0h-2-2-2--3-3-3---------and a half --3-3------------------------------------
D---0h2-2-2-0h-2-2-2----------------then       -----------------------------------------


verse break
e-----------------------------------
B-----------------------------------
G----------------------------------- 
d---------------------7-7-7-7------- 
A---0h2-2-2-0h-2-2-2----------------
D---0h2-2-2-0h-2-2-2----------------

verse


e-----------------------------------           --3-3--2-2---3-3-2-2-2--3-3--2-2-----
B-----------------------------------           --3-3--3-3---3-3-3-3-3--3-3--3-3-----
G-----------------------------------           --0-0--2-2---0-0-2-2-2--0-0--2-2-----
d---------------------2-2-2---------   1       --2-2--0-0---2-2-0-0-0--2-2--0-0-----
A---0h2-2-2-0h-2-2-2--3-3-3---------and a half --3-3--------3-3--------3-3----------
D---0h2-2-2-0h-2-2-2----------------then       -------------------------------------chorus:
Guitar 1
e--------------------3-3-3-3---2-2-2-2----------------------------
B--------------------3-3-3-3---3-3-3-3----------------------------
G--------------------0-0-0-0---2-2-2-2----------------------------
d-2-2-2-2----5-5-5-5-2-2-2-2---0-0-0-0----------------------------x5
A-2-2-2-2----5-5-5-5-3-3-3-3---0-0-0-0----------------------------
D-2-2-2-2----5-5-5-5-----------0-0-0-0----------------------------

Guitar 2
e----------------------------------------------
B--10/8-8-8-8-8t10r8t10/12/10-8----------------
G---0-0-0-0-0-0--0-0--0--0--0-0----------------
d----------------------------------------------x10
A----------------------------------------------
D----------------------------------------------


bridge
guitar 1
e--2-3-0-0-0-0-0--2-3-0-0-0-0-0------------------------------
B--3-3-0-0-0-0-0--3-3-0-0-0-0-0------------------------------
G--2-0-0-0-0-0-0--2-0-0-0-0-0-0------------------------------
d--0-2-2-2-2-2-2--0-2-5-5-5-5-5------------------------------3 and a 1fifth
A--0-3-2-2-2-2-2--0-3-5-5-5-5-5------------------------------
E--0-0-2-2-2-2-2--0-0-5-5-5-5-5------------------------------

guitar 2
e----------------------------------------------
B---15^----8^----9t10r9--14^-12^-10^-----------                                     12
G---15^---11^------------17^-15^-13^-----------x2(during 2nd time bend whole not of 15 
d----------------------------------------------   then bring back down to regular note
A----------------------------------------------   don't hit the last note go staright into 
D----------------------------------------------   chorus)


chorus:
Guitar 1
e--------------------3-3-3-3---2-2-2-2----------------------------
B--------------------3-3-3-3---3-3-3-3----------------------------
G--------------------0-0-0-0---2-2-2-2----------------------------
d-2-2-2-2----5-5-5-5-2-2-2-2---0-0-0-0----------------------------x22
A-2-2-2-2----5-5-5-5-3-3-3-3---0-0-0-0----------------------------
D-2-2-2-2----5-5-5-5-----------0-0-0-0----------------------------

Guitar 2A                         B
e------------------------------     -------------------------------------
B--10/8-8-8-8-8t10r8t10/12/10-8-    ---------9-9-7-5---------------------
G---0-0-0-0-0-0--0-0--0--0--0-0-x10 -9-7-9-7-----------------------------
d-------------------------------    ------------------9-9-7-7-9-9-9^-7---
A-------------------------------    -------------------------------------
D-------------------------------    -------------------------------------

__________________________________________________________________________________________
section2  guitar 2  x3

e------------------------------     -------------------------------------
B--10/8-8-8-8-8t10r8t10/12/10-8-    ---------9-9-7-5---------------------
G---0-0-0-0-0-0--0-0--0--0--0-0-x2  -9-7-9-7-----------------------------
d-------------------------------    ------------------9-9-7-7-9-9-9^-7---
A-------------------------------    -------------------------------------
D-------------------------------    -------------------------------------

__________________________________________________________________________________________Guitar 2

e--------------------------------------------------
B----------9-9-7-5---------------------------------
G--9-7-9-7-----------------------------------------
d--------------------9-9-7-7-9-9-9^-7--------------x1
A--------------------------------------------------
D--------------------------------------------------outro:

Guitar 2
e----------------------------------------------
B--10/8-8-8-8-8t10r8t10/12/10-8----------------
G---0-0-0-0-0-0--0-0--0--0--0-0----------------
d----------------------------------------------x4
A----------------------------------------------
D----------------------------------------------


Guitar 1:
e-----------
B-----------
G--0-0------
d--5-5------x4
A-----------
E-----------thats all of it
sorry if you guitar 2
its pretty right
not sure about the bridge
any comments of u think its dodgy
write to
[email protected]


Текст, аккорды и табулатура для песни "Hey Driver", исполняет "Motor Ace".
Используемые в песне аккорды можно найти в разделе Как брать аккорды. Аккорды для шестиструнной гитары. Другие песни можно найти на нашем сайте, воспользовавшись алфавитным указателем вверху страницы.


 
Ошибка в тексте? Выделите ошибку и нажмите Ctrl+Enter