Too Fast for Love
Motley Crue
Off the album Too Fast For Love
Tabbed by Paul Baptist
[email protected]

Intro:

G|---------------4---5-6-5-6-
D|-4-6-4-7-4-8-4---4---------
A|---------------------------
E|---------------------------

G|---------------------------
D|---------------4---5-6-5-6-
A|-4-6-4-7-4-8-4---4---------
E|---------------------------

G|---------------------------
D|---------------------------
A|---------------------------
E|-0-2-0-3-0-4-0-5-0-6-7-6-7-

Verse:

G|-----------------------------------------
D|----------------------------------------- 2x
A|-----------------------------------------
E|-10-10-10-10-10---10-10-10-10-10-10-10---

G|-------------------------------------------------
D|------------------------------------------------- 1x
A|-------------------------------------------------
E|-2-2-2-2-2---2-2-2-2-2---3-3-3-3-3---3-3-3-3-3---

Play first phrase again (1x)

Chorus:

G|-------------------------------------------
D|------------------------------------------- 2x
A|-------------------------------------------
E|-5-5-5-5-5-5-5-5-5-53-3-3-3-3-3-3-3-3-3-3/

Don't know the riff that follows, I usually just leave this to the guitar

Solo:

G|---------------------7h9-
D|-----------------7h9-----
A|---------5h7-7h8---------
E|-5h7-7h8-----------------


Текст, аккорды и табулатура для песни "Too Fast For Love", исполняет "Motley Crue".
Используемые в песне аккорды можно найти в разделе Как брать аккорды. Аккорды для шестиструнной гитары. Другие песни можно найти на нашем сайте, воспользовавшись алфавитным указателем вверху страницы.


 
Ошибка в тексте? Выделите ошибку и нажмите Ctrl+Enter