TIL DEATH DO US PART
Motley crue                        
Tabber: [email protected]


tuning (D G C F)

 Intro
 
 
|---------|---------|-----|
|---------|---------|-----|
|---------|---------|-----|
|---------|---------|-----||----------------------------|
|----8-10-10s12-(12)-10-8----|
|-10----------------------10-|
|----------------------------|


                                         
|-14h15p14h15p14h15p14h15p14h15p14h15p14h15p14h15p|=14h15p14h15p14s12-(12)----|
|-------------------------------------------------|---------------------------|
|-------------------------------------------------|---------------------------|
|-------------------------------------------------|---------------------------||---------------------------|---------------------||
|----8-10-10s12-(12)-10-8-7-|----8-10-12-(12)----||
|-10------------------------|-10------10-(10)----||
|---------------------------|---------------------||


                                               1.          2.

||-----------------|---------|----------------|----------||------------------||
||o----------------|---------|----------------|---------o||------------------||
||o----------------|---------|----------------|---------o||------------1-----||
||--3------(3)-5s3-|---------|-3------(3)-5s3-|----------||------1-2-3---3-1-||


 Verse

|----------------|---------|----------------|-----|
|----------------|---------|----------------|-----|
|----------------|---------|----------------|-----|
|-3------(3)-5s3-|---------|-3------(3)-5s3-|-----||----------------|---------|----------------|-------------------|
|----------------|---------|----------------|-------------------|
|----------------|---------|----------------|------------1------|
|-3------(3)-5s3-|---------|-3------(3)-5s3-|------1-2-3---3-1--|


  

|-----------------|-----------------|-----------------|----------------------|
|-----------------|-----------------|-----------------|----------------------|
|-----------------|-----------------|-----------------|---------1-1-1-3------|
|-3-3-3-3-3-3-3-3-|-3-3-3-3-3-3-3-3-|-3-3-3-3-3-3-3-3-|-3-3-3-3---------3-1--|


  
|-----------------|-----------------|-----------------|--------------------||
|-----------------|-----------------|-----------------|--------------------||
|-----------------|-----------------|-----------------|--1--1--1-------1-1-||
|-3-3-3-3-3-3-3-3-|-3-3-3-3-3-3-3-3-|-3-3-3-3-3-3-3-3-|----------1-2-3-----||


 Pre Chorus
  
|---------------------|-----------------|-----------------|---------------|
|---------------------|-----------------|-----------------|---------------|
|-3-3-3-3-3-3-----1-1-|-3-3-3-3-3-3-3-3-|-1-1-1-1-1-1-1-1-|--3--3-(3)----|
|-------------1-3-----|-----------------|-----------------|---------------|


  
|-----------------|-----------------|-----------------|----------------||
|-----------------|-----------------|-----------------|----------------||
|-----------------|-----------------|-----------------|---------1--0---||
|-3-3-3-3-3-3-3-3-|-3-3-3-3-3-3-3-3-|-3-3-3-3-3-3-3-3-|-3-3-3-3--------||


 Chorus
 
 
|----------------|--------------------|-----------------|------------------|
|-----5-(5)--3---|--------------------|-----/5-(5)--3---|-----/5-(5)--3----|
|--------------5-|-3b5=====(3)r=(3)-1-|-1-------------5-|-0-------------5--|
|-3--------------|--------------------|-----------------|------------------|


                     
|----------------|--------------------|
|-----5-(5)--3---|--------------------|
|--------------5-|-3b5=====(3)r=(3)-1-|
|-3--------------|--------------------|


     
           
|-----------------|-------|------------------||
|-----/5-(5)--3---|-------|------------------||
|-1-------------5-|-------|------------------||
|-----------------|-5---5-|-(5)b6------(5)---||


 2nd Verse

|----------------|---------|----------------|-----|
|----------------|---------|----------------|-----|
|----------------|---------|----------------|-----|
|-3------(3)-5s3-|---------|-3------(3)-5s3-|-----|


                                              
 
|----------------|-----------|----------------|-------------------||
|----------------|-----------|----------------|-------------------||
|----------------|-----------|----------------|------------1------||
|-3------(3)-5s3-|---3------|-3------(3)-5s3-|------1-2-3---3-1--||


                   Intrelude
  

|----------------||----------|----------|----------|------|
|-----5-(5)------||----------|----------|----------|------|
|-0----------3-1-||----------|----------|----------|------|
|----------------||-3--------|-3--------|-3--------|-3----||-------------|-------------|-------------|------------||
|-------------|-1-----------|-2-----------|-3----------||
|-------------|-------------|-------------|------------||
|-3-3-3-3-----|---3-3-3-----|---3-3-3-----|---3-3------||


 Guitar Solo
 
|-----------------|-----------------|-----------------|----------------|
|-----------------|-----------------|-----------------|----------------|
|-5-5-5-5-5-5-5-5-|-5-5-5-5-5-5-5-5-|-5-5-5-5-5-5-5-5-|-5-5-5-5--------|
|-----------------|-----------------|-----------------|---------1--0---|


  
|-----------------|-----------------|-----------------|----------------|
|-----------------|-----------------|-----------------|----------------|
|-5-5-5-5-5-5-5-5-|-5-5-5-5-5-5-5-5-|-5-5-5-5-5-5-5-5-|-5-5-5-5-1--0---|
|-----------------|-----------------|-----------------|----------------|


 
|----------------|--------------------|-----------------|------------------|
|-----5-(5)--3---|--------------------|-----/5-(5)--3---|-----/5-(5)--3----|
|--------------5-|-3b5=====(3)r=(3)-1-|-1-------------5-|-0-------------5--|
|-3--------------|--------------------|-----------------|------------------|


                                                       
|----------------|--------------------|-----------------|------------------||
|-----5-(5)--3---|--------------------|-----/5-(5)--3---|-----/5-(5)--3----||
|--------------5-|-3b5=====(3)r=(3)-1-|-1-------------5-|-0-------------5--||
|-3--------------|--------------------|-----------------|------------------||


  
 
          ~~~
|-----------------|------------|
|-----/5-(5)--3---|------------|
|-1-------------5-|-0----1--0--|
|-----------------|------------|


   Outro
  
||------------------|-----------------------------|
||o-----------------|-----------------------------|
||o-----------------|----------3b4==(3)r(3)p1-----|
||--3-3-3-3-3-3-3-3-|-3-3-3-3-----------------3p1-|


 
|-----------------|---------------|-----------------|
|-----------------|---------------|-----------------|
|-----------------|---------1--0--|-----------------|
|-3-3-3-3-3-3-3-3-|-3-3-3-3-------|-3-3-3-3-3-3-3-3-|


 
                                                                  3x
|-----------------------------|-----------------|-----------------||
|-----------------------------|-----------------|----------------o||
|----------3b4==(3)r(3)p1-----|-----------------|---------1--0---o||
|-3-3-3-3-----------------3p1-|-3-3-3-3-3-3-3-3-|-3-3-3-3---------||


Текст, аккорды и табулатура для песни "Til Death Do Us Part", исполняет "Motley Crue".
Используемые в песне аккорды можно найти в разделе Как брать аккорды. Аккорды для шестиструнной гитары. Другие песни можно найти на нашем сайте, воспользовавшись алфавитным указателем вверху страницы.


 
Ошибка в тексте? Выделите ошибку и нажмите Ctrl+Enter