Guitar Dives                  intro          drums enter            
F------------------------------|--------------|-------------------------
C------------------------------|--------------|-------------------------
G------------------------------|--------------|-------------------------
D------------------------------|--------------|-------------------------
                                                                        
F---------------|--------------------|--------------------------|-------
C---------------|--------------------|--------------------------|-------
G---------------|--------------------|--------------------------|--5----
D---3-----4--5--|-----5--5--5--5--5--|--3-----3--3--3--3--3--3--|-------
                                                                        
F---------------------|-------------------------------------------------
C---------------------|--------------------------|----------------------
G------5--5--5--5--5--|--5--5--5--5--5--5--5--5--|----------------------
D---------------------|--------------------------|--5-----5--5--5--5----
                                                                        
F------|--------------------------|-----------------------|-------------
C------|--------------------------|-----------------------|-------------
G------|--------------------------|--5-----5--5--5--5--5--|--5--5-------
D---5--|--3-----3--3--3--3--3--3--|-----------------------|--------0--
                                                                        
F------------------|-----------------------|----------------------------
C------------------|-----------------------|----------------------------
G------------0--3--|-----------------------|----------------------------
D---2--3--4--------|--5-----5--5--5--5--5--|--3-----3--3--3--3--3--3----
                                   Verse
F---|-----------------------------|-----------------------------|-------
C---|-----------------------------|-----------------------------|-------
G---|--5--------------------------|-----------------------------|-------
D---|-----------------3-----4--5--|-----5--5--5--5--5--5--5--5--|--5----

F------------------------|--------------------------|-------------------
C------------------------|--------------------------|-------------------
G------------------------|--------------------------|-------------------
D---5--5--5--5--3-----4--|--5--5--5--5--5--5--5--5--|--5--5--5--5--5----

F------------|-----------------------|-----------------------|----------
C------------|-----------------------|-----------------------|----------
G------------|--3-----3--3--3--3--3--|-----------------------|--5--5----
D---5--3--5--|-----------------------|--3-----3--3--3--3--3--|----------

F---------------------|--------------------------|----------------------
C---------------------|--------------------------|----------------------
G---5--5--5--5--5--5--|--5--5--5--5--------------|----------------------
D---------------------|--------------3-----4--5--|-----5--5--5--5--5----

F------------|--------------------------|--------------------------|----
C------------|--------------------------|--------------------------|----
G------------|--------------------------|--------------------------|----
D---5--5--5--|--5--5--5--5--5--3-----4--|--5--5--5--5--5--5--5--5--|----

F---------------------------|-----------------------|-------------------
C---------------------------|-----------------------|-------------------
G---------------------------|--3-----3--3--3--3--3--|-------------------
D---5--5--5--5--5--5--3--5--|-----------------------|--3-----3--3--3----

F---------|--------------------------|--------------------------|-------
C---------|--------------------------|--------------------------|-------
G---------|--5--5--5--5--5--5--5--5--|--5--5--5--5--------------|-------
D---3--3--|--------------------------|--------------3-----4--5--|--5----
                                           Chorus                       
F---------------------|-----------------|--------------------------|----
C---------------------|-----------------|--------------------------|----
G---------------------|-----------------|--------------------------|----
D---------3-----4--5--|--5--------------|--5--------5--5--5--5--5--|----

F---------------------------|-----------------------|-------------------
C---------------------------|-----------------------|-------------------
G---------------------------|--5-----5--5--5--5--5--|--5--5--5--5--5----
D---3-----3--3--3--3--3--3--|-----------------------|-------------------

F------------|-----------------------|--------------------------|-------
C------------|-----------------------|--------------------------|-------
G---5--5--5--|-----------------------|--------------------------|--5----
D------------|--5-----5--5--5--5--5--|--3-----3--3--3--3--3--3--|-------

F---------------------|--------------------------|----------------------
C---------------------|--------------------------|----------------------
G------5--5--5--5--5--|--5--5--------------0--3--|----------------------
D---------------------|--------0--2--3--4--------|--5-----5--5--5--5----

F------|--------------------------|-----------------------|-------------
C------|--------------------------|-----------------------|-------------
G------|--------------------------|--5-----5--5--5--5--5--|--5--5--5----
D---5--|--3-----3--3--3--3--3--3--|-----------------------|-------------

F------------------|-----------------------|----------------------------
C------------------|-----------------------|----------------------------
G---5--5--5--5--5--|-----------------------|----------------------------
D------------------|--5-----5--5--5--5--5--|--3-----3--3--3--3--3--3----

F---|--------------------------|--------------------------|-------------
C---|--------------------------|--------------------------|-------------
G---|--------------------------|--------------------------|-------------
D---|--1-----1--1--1--1--1--1--|--1--1--1--1--1--1--1--1--|--1-----1----

F------------------|--------------------|--------------------------|----
C------------------|--------------0--3--|--------------------------|----
G------------------|--0--2--3--4--------|--------------------------|----
D---1--1--1--1--1--|--------------------|--------------------------|----

F---------------------------------------|--------------------------|----
C---------------------------------------|--------------------------|----
G---------------------------------------|--------------------------|----
D---------------------------3-----4--5--|--5--5--5--5--5--5--5--5--|----
                                                          Verse         
F---------------------------|--------------------------|----------------
C---------------------------|--------------------------|----------------
G---------------------------|--------------------------|----------------
D---5--5--5--5--5--3-----4--|--5--5--5--5--5--5--5--5--|-----5--5--5----

F------------------|--------------------------|-------------------------
C------------------|--------------------------|-------------------------
G------------------|--------------------------|-------------------------
D---5--5--5--5--5--|--5--5--5--5--5--3-----4--|--5--5--5--5--5--5--5----

F------|--------------------------|-----------------------|-------------
C------|--------------------------|-----------------------|-------------
G------|--------------------------|--3-----3--3--3--3--3--|-------------
D---5--|--5--5--5--5--5--5--3--5--|-----------------------|--3-----3----

F---------------|--------------------------|----------------------------
C---------------|--------------------------|----------------------------
G---------------|--5--5--5--5--5--5--5--5--|--5--5--5--5----------------
D---3--3--3--3--|--------------------------|--------------3-----4--5----

F---|--------------------------|--------------------------|-------------
C---|--------------------------|--------------------------|-------------
G---|--------------------------|--------------------------|-------------
D---|--5--5--5--5--5--5--5--5--|--5--5--5--5--5--3-----4--|--5--5--5----

F------------------|--------------------------|-------------------------
C------------------|--------------------------|-------------------------
G------------------|--------------------------|--3-----3--3--3--3--3----
D---5--5--5--5--5--|--5--5--5--5--5--5--3--5--|-------------------------

F---|-----------------------|--------------------------|----------------
C---|-----------------------|--------------------------|----------------
G---|-----------------------|--5--5--5--5--5--5--5--5--|--5--5--5--5----
D---|--3-----3--3--3--3--3--|--------------------------|----------------

F---------------|-----------------------|-----------------|-------------
C---------------|-----------------------|-----------------|-------------
G---------------|-----------------------|-----------------|-------------
D---3-----4--5--|--5--------3-----4--5--|--5--------------|--5----------

F------------------|--------------------------|-------------------------
C------------------|--------------------------|-------------------------
G------------------|--------------------------|--5-----5--5--5--5--5----
D---5--5--5--5--5--|--3-----3--3--3--3--3--3--|-------------------------

F---|--------------------------|-----------------------|----------------
C---|--------------------------|-----------------------|----------------
G---|--5--5--5--5--5--5--5--5--|-----------------------|----------------
D---|--------------------------|--5-----5--5--5--5--5--|--3-----3--3----

F---------------|-----------------------|--------------------------|----
C---------------|-----------------------|--------------------------|----
G---------------|--5-----5--5--5--5--5--|--5--5--------------0--3--|----
D---3--3--3--3--|-----------------------|--------0--2--3--4--------|----

F------------------------|--------------------------|-------------------
C------------------------|--------------------------|-------------------
G------------------------|--------------------------|--5-----5--5--5----
D---5-----5--5--5--5--5--|--3-----3--3--3--3--3--3--|-------------------

F---------|--------------------------|-----------------------|----------
C---------|--------------------------|-----------------------|----------
G---5--5--|--5--5--5--5--5--5--5--5--|-----------------------|----------
D---------|--------------------------|--5-----5--5--5--5--5--|--3-------

F---------------------|--------------------------|----------------------
C---------------------|--------------------------|----------------------
G---------------------|--------------------------|----------------------
D---3--3--3--3--3--3--|--1-----1--1--1--1--1--1--|--1--1--1--1--1--1----
                                              Bridge                    
F---------|-----------------------------|-------------------------------
C---------|-----------------------------|-------------------------------
G---------|-----------------------------|-------------------------------
D---1--1--|--0--------------------------|-------------------------------

F------------------------------------------|--------------------|-------
C------------------------------------------|--------------------|-------
G------------------------------------------|--------------0--3--|-------
D------------------------------------------|--0--2--3--4--------|--5----

F------------|--------------|--------------|--------------|-------------
C------------|--------------|--------------|--------------|-------------
G------------|--------------|--3-----------|--------------|-------------
D------------|--3-----------|--------------|--5-----------|--3----------

F------|--------------|-----------------------|--------------|----------
C------|--------------|-----------------------|--------------|----------
G------|--3-----------|-----------------0--3--|--------------|----------
D------|--------------|-----0--2--3--4--------|--5-----------|--3-------

F---------|--------------|--------------|--------------|----------------
C---------|--------------|--------------|--------------|----------------
G---------|--3-----------|--------------|--------------|--3-------------
D---------|--------------|--5-----------|--3-----------|----------------

F---|--------------------|--------------|--------------|----------------
C---|--------------------|--------------|--------------|----------------
G---|--------------0--3--|--------------|--------------|--3-------------
D---|--0--2--3--4--------|--5-----------|--3-----------|----------------
                                                       Chorus           
F---|--------------|--------------|-----------------|-------------------
C---|--------------|--------------|-----------------|-------------------
G---|--------------|--------------|--3--------------|-------------------
D---|--5-----------|--3-----------|-----------------|--5--------5--5----

F------------|--------------------------|-----------------------|-------
C------------|--------------------------|-----------------------|-------
G------------|--------------------------|--5-----5--5--5--5--5--|--5----
D---5--5--5--|--3-----3--3--3--3--3--3--|-----------------------|-------

F------------------------|-----------------------|----------------------
C------------------------|-----------------------|----------------------
G---5--5--5--5--5--5--5--|-----------------------|----------------------
D------------------------|--5-----5--5--5--5--5--|--3-----3--3--3--3----

F---------|-----------------------|--------------------------|----------
C---------|-----------------------|--------------------------|----------
G---------|--5-----5--5--5--5--5--|--5--5--------------0--3--|----------
D---3--3--|-----------------------|--------0--2--3--4--------|--5-------

F------------------|--------------------------|-------------------------
C------------------|--------------------------|-------------------------
G------------------|--------------------------|--5-----5--5--5--5--5----
D---5--5--5--5--5--|--3-----3--3--3--3--3--3--|-------------------------

F---|--------------------------|-----------------------|----------------
C---|--------------------------|-----------------------|----------------
G---|--5--5--5--5--5--5--5--5--|-----------------------|----------------
D---|--------------------------|--5-----5--5--5--5--5--|--3-----3--3----

F---------------|-----------------------|--------------------------|----
C---------------|-----------------------|--------------------------|----
G---------------|--5-----5--5--5--5--5--|--5--5--------------0--3--|----
D---3--3--3--3--|-----------------------|--------0--2--3--4--------|----

F---------------------------|--------------------------|----------------
C---------------------------|--------------------------|----------------
G---------------------------|--------------------------|--5-----5--5----
D---5--------5--5--5--5--5--|--3-----3--3--3--3--3--3--|----------------

F------------|--------------------------|-----------------|-------------
C------------|--------------------------|-----------------|-------------
G---5--5--5--|--5--5--5--5--5--5--5--5--|-----------------|--5-----5----
D------------|--------------------------|--3--5-----3--5--|-------------

F---------------|--------------------------|----------------------------
C---------------|--------------------------|----------------------------
G---5--5--5--5--|--5--5--------------0--3--|----------------------------
D---------------|--------0--2--3--4--------|--5--------5--5--5--5--5----

F---|--------------------------|-----------------------|----------------
C---|--------------------------|-----------------------|----------------
G---|--------------------------|--5-----5--5--5--5--5--|--5--5--5--5----
D---|--3-----3--3--3--3--3--3--|-----------------------|----------------

F---------------|--------------------------|----------------------------
C---------------|--------------------------|----------------------------
G---5--5--5--5--|--------------------------|----------------------------
D---------------|--5--------5--5--5--5--5--|--3-----3--3--3--3--3--3----

F---|-----------------------|--------------------------|----------------
C---|-----------------------|--------------------------|----------------
G---|--5-----5--5--5--5--5--|--5--5--------------0--3--|----------------
D---|-----------------------|--------0--2--3--4--------|--5--------5----

F---------------|--------------------------|----------------------------
C---------------|--------------------------|----------------------------
G---------------|--------------------------|--5-------------------------
D---5--5--5--5--|--3-----3--3--3--3--3--3--|-----------------5--3-------

F------|--------------------------|-----------------------------|-------
C------|--------------------------|-----------------------------|-------
G------|--------------------------|-----------------------------|-------
D---4--|--5--5--5--5--5--5--5--5--|--5--5--5--5--5--5--3-----4--|--5----

F------------------------|-----------------------------------|----------
C------------------------|-----------------------------------|----------
G------------------------|-----------------------------------|----------
D---5--5--5--5--5--5--5--|--5--5--5--5--5--5-----5--3-----4--|-----5----

F------------------------------|--------------|-------------------------
C------------------------------|--------------|--7-----7--7--7--7--7----
G------------------------------|--------------|-------------------------
D---3-----4-----5--3-----4--5--|--------------|-------------------------

F------------|--------------------------------------------------|-------
C---7--7--7--|--7--7--7--7--7--7--7--7--7--7--7--7--7--7--7--7--|--9----
G------------|--------------------------------------------------|-------
D------------|--------------------------------------------------|-------

F---------------------------------------------------|-------------------
C---9--9--9--9--9--9--9--9--9--9--9--9--9--9--9--9--|--10--10--10-------
G---------------------------------------------------|-------------------
D---------------------------------------------------|-------------------

F-------------------------------------------------------|---------------
C---10--10--10--10--10--10--10--10--10--10--10--10--10--|--12--12-------
G-------------------------------------------------------|---------------
D-------------------------------------------------------|---------------

F-----------------------------------------------------------|-----------
C---12--12--12--12--12--12--12--12--12--12--12--12--12--12--|--12-------
G-----------------------------------------------------------|-----------
D-----------------------------------------------------------|-----------

F-------------------|---------------------------------------------------
C---------12--------|---------------------------------------------------
G-------------------|--5-----------------------------------------------
D-------------------|-------5-------------------------------------------


Текст, аккорды и табулатура для песни "Kickstart My Heart", исполняет "Motley Crue".
Используемые в песне аккорды можно найти в разделе Как брать аккорды. Аккорды для шестиструнной гитары. Другие песни можно найти на нашем сайте, воспользовавшись алфавитным указателем вверху страницы.


 
Ошибка в тексте? Выделите ошибку и нажмите Ctrl+Enter