song: DRIFTAWAY
By: motley crue
Tabbed by: [email protected]
   
                          
 Intro
  


  Gtr I
|---------|---------|---------|--------------||
|---------|---------|---------|--------------||
|---------|---------|---------|-------0-2-4--||
|---------|---------|---------|--------------||


 1st Verse

|-----------|-----------|-----------|---------------|-----------|
|-----------|-----------|-----------|---------------|-----------|
|-5----4----|-2----0----|-5----4----|-2----0--0-2-4-|-5----4----|
|-----------|-----------|-----------|---------------|-----------||-----------|-----------|-------------|-----------|------||
|-----------|-----------|-------------|-----------|------||
|-2---------|------0----|-5--4--2--0--|------0----|-5----||
|------4----|-3---------|-------------|-3---------|------||


 Interlude

|-------------|---------|---------|-------7-----||
|-------------|---------|---------|---------7---||
|-(5)/--------|---------|---------|-----------5-||
|-------------|---------|---------|-------------||


 2nd Verse

|------------|------------|------------|----------------|
|------------|------------|------------|----------------|
|-5---5-4----|-2---2-0----|-5---5-4----|-2---2-0--0-2-4-|
|------------|------------|------------|----------------||------------|-----------|-----------|
|------------|-----------|-----------|
|-5---5-4----|-2---------|-----------|
|------------|------4----|-3----5----||-------------|-----------|------||
|-------------|-----------|------||
|-5--4--2--0--|-----------|-5----||
|-------------|-3----5----|------||


 Bridge

|-------------------|-------------------|
|----5s7s5----5s7s5-|-----4-------------|
|-------------------|-5-----5-5-(5)-5---|
|-3--------3--------|-----------------0-||-------------------|---------------7-7---|
|----5s7s5----5s7s5-|----------------------|
|-------------------|-5---(5)/--5-5--------|
|-3--------3--------|----------------------||-------------------|-------------|
|----5s7s5----7s9s7-|-------------|
|-------------------|-5--4--2--0--|
|-3--------5--------|-------------|


|---------------------|------------|--------------||
|---------------------|------------|--------------||
|---------------------|-0---5-0----|-(0)----------||
|-0-0-0-0-0-4-4-4-4-4-|------------|--------------||


 Interlude 2

|-----------|-----------|-----------|-----------||
|-----------|-----------|-----------|-----------||
|-5----4----|-2----0----|-5----4----|-2----0----||
|-----------|-----------|-----------|-----------||


 Guitar Solo
 
                                                                     
|-------------------|----------------|---------------|---------------|--------||
|-------------------|----------------|---------------|---------------|--------||
|-5--(5)-5-4--(4)-4-|-2--(2)-2-0-0---|-5--(5)-5-4----|-2--(2)--------|--------||
|-------------------|----------------|---------------|--------4-4----|-(4)----||


 Outro
 
 
|-------------------|-------------|-------------------|-------------|
|----5s7s5----7s9s7-|-------------|----5s7s5----7s9s7-|-------------|
|-------------------|-5--4--2--0--|-------------------|-5--4--2--0--|
|-3--------5--------|-------------|-3--------5--------|-------------||-----------------7-|-7--6--4--2--|---------------|--------------|
|----5s7s5----7s9---|-------------|---------------|--------------|
|-------------------|-------------|-----------0-0-|-5--4--2--0---|
|-3--------5--------|-------------|-3--3-3-5------|--------------||---------------|-------------|---------------|
|---------------|-------------|---------------|
|-----------0-0-|-5--4--2--0--|-----------0-0-|
|-3--3-3-5------|-------------|-3--3-3-5------|


     

|-------------|-----------|------*|
|-------------|-----------|------*|
|-5--4--2--0--|------0----|-5----*|
|-------------|-3---------|------*|


Текст, аккорды и табулатура для песни "Driftaway", исполняет "Motley Crue".
Используемые в песне аккорды можно найти в разделе Как брать аккорды. Аккорды для шестиструнной гитары. Другие песни можно найти на нашем сайте, воспользовавшись алфавитным указателем вверху страницы.


 
Ошибка в тексте? Выделите ошибку и нажмите Ctrl+Enter