danger
motley crue

drop D tuning- DGCFAD

- slide down
h- hammer on
p- pull off
b- bend

intro
d-------1-0--1--------------1-0--1-------------3--1----------------------
g---------------3------------------3----------------3------------------0-
c----2------------2------2-----------2------0---------0-------0------0---
f--0--------------------------------------0-----------------0------0-----
a---------------------3-----------------2-----------------1------2-------
d------------------------------------------------------------------------

d-------1-0--1--------------1-0--1------------3---1----------------------
g---------------3------------------3----------------3------------------0-
c----2------------2------2-----------2------0---------0-------0------0---
f--0--------------------------------------0-----------------0------0-----
a---------------------3-----------------2-----------------1------2-------
d------------------------------------------------------------------------

d---------------
g-------------4-
c------0----0---
f----0---1------
a--3------------
d---------------

gtr 2
d-------------------
g-------------------
c-------------------
f-------------------
a--17---1--2--3--6-
d-------------------

verse
d-------1-0--1--------------1-0--1------------3---1----------------------
g---------------3------------------3----------------3------------------0-
c----2------------2------2-----------2------0---------0-------0------0---
f--0--------------------------------------0-----------------0------0-----
a---------------------3-----------------2-----------------1------2-------
d------------------------------------------------------------------------

d-------1-0--1--------------1-0--1------------3---1----------------------
g---------------3------------------3----------------3------------------0-
c----2------------2------2-----------2------0---------0-------0------0---
f--0--------------------------------------0-----------------0------0-----
a---------------------3-----------------2-----------------1------2-------
d------------------------------------------------------------------------

d-------1-0--1--------------1-0--1------------3---1----------------------
g---------------3------------------3----------------3------------------0-
c----2------------2------2-----------2------0---------0-------0------0---
f--0--------------------------------------0-----------------0------0-----
a---------------------3-----------------2-----------------1------2-------
d------------------------------------------------------------------------

d-------1-0--1--------------1-0--1------------3---1----------------------
g---------------3------------------3----------------3------------------0-
c----2------------2------2-----------2------0---------0-------0------0---
f--0--------------------------------------0-----------------0------0-----
a---------------------3-----------------2-----------------1------2-------
d------------------------------------------------------------------------

d---------------
g-------------4-
c------0----0---
f----0---1------
a--3------------
d---------------

gtr 2
d-------------------
g-------------------
c-------------------
f-------------------
a--17---1--2--3--6-
d-------------------

pre-chorus
d------------------------------------------------------------
g--3--3-3-3-----3-3-3--3--3-----3-3-3--3--3------------------
c--2--2-2-2-----2-3-3--3--3-----3-4-4--4--4------------------
f--0--0-0-0--0--0-0-0--0--0--0--0-0-0--0--0---0--0-2-3-2-0---
a-----------------------------------------------3----------3-
d------------------------------------------------------------

d------------------------------------------------------------
g--3--3-3-3-----3-3-3--3--3-----3-3-3--3--3------------------
c--2--2-2-2-----2-3-3--3--3-----3-4-4--4--4------------------
f--0--0-0-0--0--0-0-0--0--0--0--0-0-0--0--0---0--0-2-3-2-0---
a-----------------------------------------------3----------3-
d------------------------------------------------------------

chorus
d--------------------------------------------------------------
g--------------------------------------------------------------
c--------------------------------------------------------------
f--5-7-7-5-7--7------------------------5-7-7-5-7--7----------
a--3-5-5-3-5--5----0-1-3---1h3p1p0-----3-5-5-3-5--5----------
d-----------------3------------------3-----------------3-5-6-5-

d--------------------------------------------------------------
g--------------------------------------------------------------
c--------------------------------------------------------------
f--5-7-7-5-7--7------------------------5-7-7-5-7--7----------
a--3-5-5-3-5--5----0-1-3---1h3p1p0-----3-5-5-3-5--5----------
d-----------------3------------------3-----------------3-5-6-5-

pre-verse
d-------1-0--1--------------1-0--1------------3---1----------------------
g---------------3------------------3----------------3------------------0-
c----2------------2------2-----------2------0---------0-------0------0---
f--0--------------------------------------0-----------------0------0-----
a---------------------3-----------------2-----------------1------2-------
d------------------------------------------------------------------------

d---------------
g-------------4-
c------0----0---
f----0---1------
a--3------------
d---------------

gtr 2
d-------------------
g-------------------
c-------------------
f-------------------
a--17---1--2--3--6-
d-------------------

verse
d-------1-0--1--------------1-0--1------------3---1----------------------
g---------------3------------------3----------------3------------------0-
c----2------------2------2-----------2------0---------0-------0------0---
f--0--------------------------------------0-----------------0------0-----
a---------------------3-----------------2-----------------1------2-------
d------------------------------------------------------------------------

d-------1-0--1--------------1-0--1------------3---1----------------------
g---------------3------------------3----------------3------------------0-
c----2------------2------2-----------2------0---------0-------0------0---
f--0--------------------------------------0-----------------0------0-----
a---------------------3-----------------2-----------------1------2-------
d------------------------------------------------------------------------

d---------------
g-------------4-
c------0----0---
f----0---1------
a--3------------
d---------------

gtr 2
d-------------------
g-------------------
c-------------------
f-------------------
a--17---1--2--3--6-
d-------------------

pre-chorus
d------------------------------------------------------------
g--3--3-3-3-----3-3-3--3--3-----3-3-3--3--3------------------
c--2--2-2-2-----2-3-3--3--3-----3-4-4--4--4------------------
f--0--0-0-0--0--0-0-0--0--0--0--0-0-0--0--0---0--0-2-3-2-0---
a-----------------------------------------------3----------3-
d------------------------------------------------------------

d------------------------------------------------------------
g--3--3-3-3-----3-3-3--3--3-----3-3-3--3--3------------------
c--2--2-2-2-----2-3-3--3--3-----3-4-4--4--4------------------
f--0--0-0-0--0--0-0-0--0--0--0--0-0-0--0--0---0--0-2-3-2-0---
a-----------------------------------------------3----------3-
d------------------------------------------------------------

chorus
d--------------------------------------------------------------
g--------------------------------------------------------------
c--------------------------------------------------------------
f--5-7-7-5-7--7------------------------5-7-7-5-7--7----------
a--3-5-5-3-5--5----0-1-3---1h3p1p0-----3-5-5-3-5--5----------
d-----------------3------------------3-----------------3-5-6-5-

d--------------------------------------------------------------
g--------------------------------------------------------------
c--------------------------------------------------------------
f--5-7-7-5-7--7------------------------5-7-7-5-7--7----------
a--3-5-5-3-5--5----0-1-3---1h3p1p0-----3-5-5-3-5--5----------
d-----------------3------------------3-----------------3-5-6-5-

solo
d-------------------------------------------
g------------17-18------17-18---------------
c--17h19--19-------17---------16---16h17p16-
f-------------------------------------------
a-------------------------------------------
d-------------------------------------------

d-----------------------------------------------20b-20b-20b-20b-
g--------------------17-18-18b--18--20--20b-20b-----------------
c--15---14---19---19--------------------------------------------
f---------------------------------------------------------------
a---------------------------------------------------------------
d---------------------------------------------------------------

gtr 2, come in on the last 4 bends of the solo
d-------------------------------------------------------------
g-------------------------------------------------------------
c-------------------------------------------------------------
f-------------------------------------------------------------
a---------------------------------------------17--1--2--3--6-
d-------------------------------------------------------------

pre-chorus
d------------------------------------------------------------
g--3--3-3-3-----3-3-3--3--3-----3-3-3--3--3------------------
c--2--2-2-2-----2-3-3--3--3-----3-4-4--4--4------------------
f--0--0-0-0--0--0-0-0--0--0--0--0-0-0--0--0---0--0-2-3-2-0---
a-----------------------------------------------3----------3-
d------------------------------------------------------------

d------------------------------------------------------------
g--3--3-3-3-----3-3-3--3--3-----3-3-3--3--3------------------
c--2--2-2-2-----2-3-3--3--3-----3-4-4--4--4------------------
f--0--0-0-0--0--0-0-0--0--0--0--0-0-0--0--0---0--0-2-3-2-0---
a-----------------------------------------------3----------3-
d------------------------------------------------------------

chorus
d--------------------------------------------------------------
g--------------------------------------------------------------
c--------------------------------------------------------------
f--5-7-7-5-7--7------------------------5-7-7-5-7--7----------
a--3-5-5-3-5--5----0-1-3---1h3p1p0-----3-5-5-3-5--5----------
d-----------------3------------------3-----------------3-5-6-5-

d--------------------------------------------------------------
g--------------------------------------------------------------
c--------------------------------------------------------------
f--5-7-7-5-7--7------------------------5-7-7-5-7--7----------
a--3-5-5-3-5--5----0-1-3---1h3p1p0-----3-5-5-3-5--5----------
d-----------------3------------------3-----------------3-5-6-5-

outro solo
d----------------------------------------------------------------
g-------------------18-17h18p17------------------------17-18-17--
c--17h19--17h19--19-------------17---17h19--17h19---19-----------
f----------------------------------------------------------------
a----------------------------------------------------------------
d----------------------------------------------------------------

gtr 2, under the outro solo
d--------------------------------------------------------------
g--------------------------------------------------------------
c--------------------------------------------------------------
f--5-7-7-5-7--7------------------------5-7-7-5-7--7----------
a--3-5-5-3-5--5----0-1-3---1h3p1p0-----3-5-5-3-5--5----------
d-----------------3------------------3-----------------3-5-6-5-

d------------------------------------------------------------------------
g-------------------17-18-17--18-17h18p17-----------------------17-18-17-
c--17h19--17h19--19-----------------------17--17h19--17h19---19----------
f------------------------------------------------------------------------
a------------------------------------------------------------------------
d------------------------------------------------------------------------

gtr 2, under the outro solo
d--------------------------------------------------------------
g--------------------------------------------------------------
c--------------------------------------------------------------
f--5-7-7-5-7--7------------------------5-7-7-5-7--7----------
a--3-5-5-3-5--5----0-1-3---1h3p1p0-----3-5-5-3-5--5----------
d-----------------3------------------3-----------------3-5-6-5-

gtr 1, by itself
d------------------------------------------------------------
g--3--3-3-3-----3-3-3--3--3-----3-3-3--3--3------------------
c--2--2-2-2-----2-3-3--3--3-----3-4-4--4--4------------------
f--0--0-0-0--0--0-0-0--0--0--0--0-0-0--0--0---0--0-2-3-2-0---
a-----------------------------------------------3----------3-
d------------------------------------------------------------

d-----------------------------------------
g-----------------------------------------
c-----------------------------------------
f--0----0--2--3--2--0-------5--7--7--5--7-
a-----3----------------3----3--5--5--3--5-
d-----------------------------------------

questions email me- [email protected]


Текст, аккорды и табулатура для песни "Danger", исполняет "Motley Crue".
Используемые в песне аккорды можно найти в разделе Как брать аккорды. Аккорды для шестиструнной гитары. Другие песни можно найти на нашем сайте, воспользовавшись алфавитным указателем вверху страницы.


 
Ошибка в тексте? Выделите ошибку и нажмите Ctrl+Enter