Brown Eyed Girl
                                 Van Morrison

Tab By : [email protected]

There are so many versions of this out there I figured I'd set the record
straight and give you mine which is as close as you're likely to get.

INTRO:

   |--3---5---7--5--3-|-8--10--12--10--8-|
   |------------------|------------------|
   |--4---5---7--5--4-|-9--10--12--10--9-|
   |------------------|------------------|
   |------------------|------------------|
   |------------------|------------------|

                                          G

   |--3---5---7--5--3-|-2-----------|-----3----|
   |------------------|----3--5--7--|-----3----|
   |--4---5---7--5--4-|-2-----------|-----4----|
   |------------------|----4--5--7--|-----5----|
   |------------------|-------------|----------|
   |------------------|-------------|----------|
    Repeat this a 2nd time

                                   G                 ( D )
    G                C            days when the   
   Hey where did    we go         rains came     
  
 --------3------|-------8------|-------3------|-14-14-12-10-10-|
 ------3---3----|---------5----|-----3---3----|----------------|
 ----4-------4--|-----5-----5--|---4-------4--|-14-14-12-11-11-|
 --5-----------5|---5---------5|-5-----------5|----------------|
 ---------------|-7------------|--------------|----------------|
 ---------------|--------------|--------------|----------------|
                                 G
    G                C          playin' a new      ( D )
   goin' down    the hollow      game
 
 --------3-----|-------8------|-------3------|------------|
 ------3---3---|---------5----|-----3---3----|--3---5---7-|
 ----4-------4-|-----5-----5--|---4-------4--|------------|
 --5----------5|---5---------5|-5-----------5|-4---5---7--|
 --------------|-7------------|--------------|------------|
 --------------|--------------|--------------|------------|
  ( Repeat this sequence for next verse )

   Bridge : ( just before the bass line solo kicks in )

   / = slide up

 --3--12/14--12--10--8--10--8--7--5--3--|
 ---------------------------------------|
 --4--12/14--12--11--9--9---9--7--5--4--|
 ---------------------------------------|
 ---------------------------------------|
 ---------------------------------------|

 This is the Barre chords I use for C & D

       C
    5th fret         7th fret
 --|---1-----|------|--------|--4--|
 --|---1-----|------|--------|-----|
 --|---1-----|------|--------|-----|       1=index finger
 --|---1-----|------|--------|-----|       3=ring finger
 --|---------|------|---3----|-----|       4=pinky
 --|---------|------|--------|-----| 


       For D just go up 2 frets

  Any questions , comments , or complaints, feel free to
  E-mail me or post a thread at this sight.


Текст, аккорды и табулатура для песни "Brown Eyed Girl", исполняет "Morrison Van".
Используемые в песне аккорды можно найти в разделе Как брать аккорды. Аккорды для шестиструнной гитары. Другие песни можно найти на нашем сайте, воспользовавшись алфавитным указателем вверху страницы.


 
Ошибка в тексте? Выделите ошибку и нажмите Ctrl+Enter