#----------------------------------PLEASE NOTE--------------------------------#
#This file is the author's own work and represents their interpretation of the#
#Song. You may only use this file for private study, scholarship, or research.#
#-----------------------------------------------------------------------------#
#-- File created with Instab - http://www.pconline.com/~smcarey/instab.html --#
#-----------------------------------------------------------------------------#

Author/Artist: Morcheeba
Title: Over and Over
Album: Big Calm
Transcribed by: Spoon
Email: [email protected]

[email protected]-|
|------1-----1---------1-----1---------1-----1---------1-----1----|
|----2---------2-----2---------2-----2---------2-----2---------2--|
|0h2-------------0h2-------------0h2-------------0h2--------------|
|--------0---------------0---------------0---------------0--------|
|-----------------------------------------------------------------|
                                                                            
|----------0---------------0-------------0-------------0----------|
|------1-----1---------1-----1---------0---0---------0---0-------0|
|----2---------2-----0---------0-----0-------0-----0-------0----0-|
|0h2-------------0h2-------------0h2-----------0h2-----------0h2--|
|--------0---------------3----------------------------------------|
|-----------------------------------------------------------------|
                                                                              
|--0-------0-------0-------0---------------0--------------0-------|
|----1-------1-------1-------1---------1-----1---------1----1-----|
|------2-------0-------0-------0-----2---------2-----2--------2---|
|3-------2-------0---------------0h2-------------0h2--------------|
|------------------------3---------------0--------------0---------|
|-----------------------------------------------------------------|
                                                                              
|----------0-------0-------0-------0------------------------------|
|------1-----1-------1-------1-------0----------------------------|
|----0---------0-------0-------0-------0--------------------------|
|0h2--------------------------------------------------------------|
|--------3-------2-------0---------------------2------------------|
|--------------------------------3-------0------------------------|

[Verse1]
Wake into these sounds again I wonder how I'll sleep,
Passing out is passing off into the stubborn deep,
Id like to meet a human who makes it all seem clear,
To work out all these cycles and work out why I'm standing here.

[Chorus]
I'm falling over and over and over and over again now,
Calling over and over and over and over again now.

[Verse2]
Running through my life right now I don't regret a thing,
Things I do just me laugh and make me want to drink,
I'd like to meet a mad man who makes it all seem sane,
To work out all these troubles and what there is to gain
[Back to chorus]

[Verse3]
Projecting what I want is always hard to know,
But when it comes between my sights ill let the damage show,
I'd like to meet a space man who's got it going on,
Sailing through the stars at night until our world is gone.
[Back to chorus]
_________________________________________
Added to UG By Mikhailo


Текст, аккорды и табулатура для песни "Over And Over", исполняет "Morcheeba".
Используемые в песне аккорды можно найти в разделе Как брать аккорды. Аккорды для шестиструнной гитары. Другие песни можно найти на нашем сайте, воспользовавшись алфавитным указателем вверху страницы.


Слушать онлайн Over And Over


MorcheebaOver And Over на Яндекс.Музыке


 
Ошибка в тексте? Выделите ошибку и нажмите Ctrl+Enter