THE LORD OF ALL FEVERS AND PLAGUE - MORBID ANGEL

A
I---------------------------------------------------------------------------------------------------I
I---------------------------------------------------------------------------------------------------I
I----------------------3----------------------3---------------------3-------------------------------I
I---4/5---3/4----------3---4/5---3/4----------3--4/5---3/4----------3--4/5---3/4-----------5-------I
I---4/5---3/4----------1---4/5---3/4----------1--4/5---3/4----------1--4/5---3/4---7---8---3---3---I
I---2/3---1/2---1-2-3------2/3---1/2---1-2-3-----2/3---1/2---1-2-3-----2/3---1/2---5---6-------1---I

B
I-------------------------------------------------------------------------------------------
I-------------------------------------------------------------------------------------------
I-------------------------------------------------------------------------------------------
I-------------------43---------------------------------------43------------------3/4------
I---54--3/4-----3--21--54--3/4-----3--87--54--34-----3--21--54--3/4-----3--1/2------
I---32--1/2--0--1-------32--1/2--0--1--65--32--1/2--0--1-------32--1/2--0--1-----------

------------------------------------------------------------------------------------------I
------------------------------------------------------------------------------------------I
------------------------------------------------------------------------------------------I
--------------------43---------------------------------------43------------------4/5----I
----54--3/4-----3--21--54--3/4-----3--87--54--34-----3--21--54--3/4-----3--2/3----I
----32--1/2--0--1-------32--1/2--0--1--65--32--1/2--0--1-------32--1/2--0--1---------I

C
I----------------------------------I
I----------------------------------I
I----------------------------------I
I---7/8----------------------------I
I---5/6-6-6-6-6-6-6---8-----7/8----I
I---------------------6--0--5/6----I

D
I----------------------------------I
I----------------------------------I
I----------------------------------I
I-------------4--5--4---4-5--7-6---I
I-5--4--5-----2--3--2---2-3--5-4---I
I-3--2--3--0-----------------------I

E
I-------------------------------------------------------------------------------------------------I
I-------------------------------------------------------------------------------------------------I
I-------------------------------------------------------------------------------------------------I
I---------------------------------------------5---------------------------------------------10----I
I---75---------75----------75----------7---3---75----------75----------75----------7---8----I
I---53--1(2)---53---1(2)---53---1(2)---5-------53---1(2)---53---1(2)---53---1(2)---5--------I

F
I--------------------------I
I--------------------------I
I--------------------------I
I--------------------------I
I-----------43--2--4-5----I
I--0--0--0--21--0--2-3----I

G
I----------------------------------------------------------------
I----------------------------------------------------------------
I----------------------------------------------------------------
I-7-------7-------7-------7------------------10------11----------
I-5-5-5-5-5-5-5-5-5-5-5-5-5-7-6-------6-------8-8-8-8-9-9-9-9----
I---------------------------5-4-4-4-4-4-4-4-4--------------------

---------------------------------------------------------------I
---------------------------------------------------------------I
---------------------------------------------------------------I
--9-------9-------9-------9------------------------------------I
--7-7-7-7-7-7-7-7-7-7-7-7-7-5-4-------4--------5-4-4---8-7-7---I
----------------------------3-2-2-2-2-2-2-2-2--3-2-2---6-5-5---I


Transcribed by Tibor Lelkes.
Questions, correctoins or something else email me at: [email protected]


Текст, аккорды и табулатура для песни "The Lord Of All Fevers And Plague", исполняет "Morbid Angel".
Используемые в песне аккорды можно найти в разделе Как брать аккорды. Аккорды для шестиструнной гитары. Другие песни можно найти на нашем сайте, воспользовавшись алфавитным указателем вверху страницы.


 
Ошибка в тексте? Выделите ошибку и нажмите Ctrl+Enter