join the death/black metal tab mailing list by emailing 
        

MORBID ANGEL's Rapture
Covenant

Rhythm/Bass Arrangement


|---------------------------------|
|---------------------------------|
|---------------------------------|
|-0-0-0-0-0-0-0-0-0-0-0-0-0-0-0-0-|

A1
|-----------------------------------------------------------------------------|
|-----------------------------------------------------------------------------|
|-------------------------------------------------------------2-2-2-2-1-1-1-1-|
|-0-0-0-0-0-0-3-3-3-3-2-2-2-2-0-0-0-0-3-3-3-3-2-2-2-2-0-0-0-0-----------------|

A2
|-----------------------------------------------------------------------------------------|
|-----------------------------------------------------------------------------------------|
|-------------------------------------------------------------2-2-2-2-1-1-1-1-4-4-4-4-4-4-|
|-0-0-0-0-0-0-3-3-3-3-2-2-2-2-0-0-0-0-3-3-3-3-2-2-2-2-0-0-0-0-----------------------------|

B1
|---------------------------------------------------------------------------------|
|---------------------------------------------------------------------------------|
|-----------------------------------------------------------------2-2-2-2-1-1-1-1-|
|-1-1-1-1-2-2-1-1-4-4-4-4-3-3-3-3-1-1-1-1-4-4-4-4-3-3-3-3-1-1-1-1-----------------|

B2
|---------------------------------------------------------------------------------------------|
|---------------------------------------------------------------------------------------------|
|-----------------------------------------------------------------2-2-2-2-1-1-1-1-4-4-4-4-4-4-|
|-1-1-1-1-2-2-1-1-4-4-4-4-3-3-3-3-1-1-1-1-4-4-4-4-3-3-3-3-1-1-1-1-----------------------------|

Repeat B1, B2 then B1 again

B3
|-----------------------------------------------------------------------------|
|-----------------------------------------------------------------------------|
|-----------------------------------------------------------------2-2-2-2-2-2-|
|-1-1-1-1-2-2-1-1-4-4-4-4-3-3-3-3-1-1-1-1-4-4-4-4-3-3-3-3-1-1-1-1-------------|

C
|-------------------------------------------|
|-----------------1-1-------1-----------2-2-|
|-1-3-1-0-0-1-1-1-----1-1-1---2-1-0-0-0-----|
|-------------------------------------------|

Repeat C three more times

X
|---------|
|---------|
|-2-2-2-2-|
|---------|

D1
|-------------------------------|
|-----------------------------2-|
|-0-0-0-0-2-2-2-2---------2-0---|
|-----------------4-4-4-4-------|

Repeat D1 six more times

D2
|-----------------------------|
|-----------------------------|
|-0-0-0-0-2-2-2-2-------------|
|-----------------4-4-4-4-4-4-|

Repeat C twice, X, D1 seven times, D2, then C twice again 

E
|---------------------------------------|
|---------------------------------------|
|---------------------------------0-1-1-|
|-0-0-1-0-1-4-4-1-0-1-1-1-1-1-2-2-------|

Repeat E seven more times

F
|-----------------------------|
|-----------------------------|
|---------0-1-0-0-3-1-0-------|
|-1-0-0-0---------------1-0-1-|

Repeat F seven more times

                               [x4] 
|---------------------------------| 
|---------------------------------|
|---------------------------------|
|-1-0-0-3-0-0-1-0-0-3-0-0-4-4-1-1-|

Repeat F three times

|---------------------------|
|---------------------------|
|---------0-1-0-0-3-1-0-----|
|-1-0-0-0---------------1-1-|

Repeat (A1 & A2) twice, (B1 & B2) three times, (B1 & B3), C four times,
             X, D1 seven times, D2, C twice, then E three times

|---------------------------------|
|---------------------------------|
|---------------------------------|
|-0-0-1-0-1-4-4-1-0-1-1-1-1-1-2-2-|


Текст, аккорды и табулатура для песни "Rapture", исполняет "Morbid Angel".
Используемые в песне аккорды можно найти в разделе Как брать аккорды. Аккорды для шестиструнной гитары. Другие песни можно найти на нашем сайте, воспользовавшись алфавитным указателем вверху страницы.


 
Ошибка в тексте? Выделите ошибку и нажмите Ctrl+Enter