Nothing Is Not

Tuneing Bb  7 string


Intro(listen to the song to get the feeling)
repeat 8X then do Fill #1

|----X--------------------------|
|----X--------------------------|
|----X--------------------------|
|----X--------------------------|
|----X--8----8-9----------------|
|-2--X--8----8-9----4-4-4-------|
|-0--X--6----6-7----2-2-2-------|
     V   

x=(place finger directly over ninth fret and stroke the pick upwards)
V= upstroke


Fill #1

|--------------------|
|--------------------|
|--------------------|
|--------------------|
|----------------6---|
|-4-4-4---2-2----4---|
|-2-2-2---0-0--------|

Main Riff
|----------------------------------------------------|
|----------------------------------------------------|
|----------------------------------------------------|
|----------------------------------------------------|
|--6-------333--4------6-----------------------------|
|--4-------111--2------4---------1-2----1----4(h)----|
|-----0-0-----------0-------0-0-------0---0----------|

Main Riff Variation
|----------------------------------------------------|
|----------------------------------------------------|
|----------------------------------------------------|
|----------------------------3-/-4--3---------------|
|------333--4------6-----------/--------------------|
|------111--2------4---------1-/-2--1---------------|
|-0-0-----------0-------0-0--------------------------|



2:10-2:29
|--------------------------------------------|
|--------------------------------------------|
|--------------------------------------------|
|--------------------------------------------|
|--------------------------------------------|
|-----------------------2(h)---2-3-2---------|
|-0-0-1-0-1-0-0--1--2-3------1---------------|


2:55-3:23
|----------------------------------------------------
|----------------------------------------------------
|----------------------------------------------------
|----------------------------------------------------
|----------------------------------------------------
|---2--3(h)-----2---------------repeat---------------
|-----------0-0---3-3--3-4--1-0----------------------


4:20-to end of song.....with little harmonic at the end...listen to figure
the correct way
|-------------------------------------------------------
|-------------------------------------------------------
|-------------------------------------------------------
|-------------------------------------------------------
|-------------------------------------------------------
|----7----6-5-------2-3------------6--5--3---2-3--------
|-0-----0-------0---------------0---0------0-----0------

h=pinch harmonic



it goes like this
                               2     232
0 0 2-1-1 0 0 1 23      1               repeat

then the last time it just goes 1,2,3 on the low B string


Текст, аккорды и табулатура для песни "Nothing Is Not", исполняет "Morbid Angel".
Используемые в песне аккорды можно найти в разделе Как брать аккорды. Аккорды для шестиструнной гитары. Другие песни можно найти на нашем сайте, воспользовавшись алфавитным указателем вверху страницы.


 
Ошибка в тексте? Выделите ошибку и нажмите Ctrl+Enter