MORBID ANGEL - HELLSPAWN: THE REBIRTH
                From the Album FORMULAS FATAL TO THE FLESH

Tabbed by Bobby Rafuse ([email protected])

Check Out DEATH8699.COM With More Transcriptions at:
 http://www.death8699.com

Tablature Notation
------------------
.  - palm mute                  /  - slide up to
  - slide down to              ~  - vibrato
h  - hammer on                  b  - bend
p  - pull off                   Suffixes for bend
ph - pinch harmonic             f - full bend    h - half bend
*  - see comment                r - release      t - tap bend
X  - percussion mute            ~ - vibrato bend
@  - slight palm mute           () - ghost note, sustained note


Tuning - 1/2 step down (Eb)


Intro (keep getting faster with drums)
|-------------------------|
|-------------------------|
|-------------------------|
|-------------------------|
|-7--8--7--6--7--6--5--4--|
|-5--6--5--4--5--4--3--2--|
pm   .  .  .  .  .  .  .


Riff 1a (gtr.1 only)
|-----------------------------------------------------------|
|-----------------------------------------------------------|
|-----------------------------------------------------------|
|-----------------------------------------------------3--6--|
|---------1-1-1-1---------1h4---------1-1-1-1---------1--4--|
|-0-0-0-0---------2-2-2-2-----0-0-0-0---------2-2-2-2-------|


Riff1b
|-----------------------------------------------------------|
|-----------------------------------------------------------|
|-----------------------------------------------------------| Gtr.
|-----------------------------------------------------3--6--|  1
|---------1-1-1-1---------1h4---------1-1-1-1---------1--4--|
|-0-0-0-0---------2-2-2-2-----0-0-0-0---------2-2-2-2-------|
|							    |
|-----------------------------------------------------------|
|-----------------------------------------------------------|
|-----------------------------------------------------------| Gtr.
|-----------------------------------------------------3--6--|  2
|-2---------------------------2---------------4-------1--4--|
|-0---------------------------0---------------2-------------|


Riff 2 (both guitars)
|-----------------------------------------------------------|
|-----------------------------------------------------------|
|-----------------------------------------------------------|
|-----------------------------------------------------3--6--|
|---------1-1-1-1---------1h4---------1-1-1-1---------1--4--|
|-0-0-0-0---------2-2-2-2-----0-0-0-0---------2-2-2-2-------|


Riff 3a (chorus)
|--------------------------------------------------------------|
|--------------------------------------------------------------|
|--------------------------------------------------------------|
|---------65-----------------------------65------------------|
|---------43-------------76-------------43-------------87--|
|-0-0-0-0-----0-0-0-0-0-0-54-0-0-0-0-0-0-----0-0-0-0-0-0-65--|
pm. . . .     . . . . . .     . . . . . .     . . . . . .


Riff 3b (chorus)
|------------------------------------------------------------|
|------------------------------------------------------------|
|------------------------------------------------------------|
|-------------65-----------------------------65------------|
|-------------43-------------76-------------43-----7---4--|
|-0-0-0-0-0-0-----0-0-0-0-0-0-54-0-0-0-0-0-0-----0-0-5---2--|
pm. . . . . .     . . . . . .     . . . . . .     . .

and that's all that's too thing song. Sorry I don't know any of the
inbetween
solos but I'm not that good at figuring out solos.


Check Out DEATH8699.COM With More Transcriptions at:
http://www.death8699.com


Текст, аккорды и табулатура для песни "Hellspawn", исполняет "Morbid Angel".
Используемые в песне аккорды можно найти в разделе Как брать аккорды. Аккорды для шестиструнной гитары. Другие песни можно найти на нашем сайте, воспользовавшись алфавитным указателем вверху страницы.


 
Ошибка в тексте? Выделите ошибку и нажмите Ctrl+Enter