=============================
FALL FROM GRACE- morbid angel
=============================

tabbed by: JagZ  [email protected]

this is a wkd song by morbid angel frm their 2nd album released in 1991,
“blessed are the sick”
pleaz note that this is only a guideline tab and itll sound better if u improvise
to a considerable degree. listen to the song for number of repeats and timing etc.
this song obviously uses high distortion



INTRO
e|-----------------------------------------| repeat this 3/4 times.
B|-----------------------------------------|
G|-----------------------------------------|
D|--22-4-3--22-6-5-4--22-4-3--22-6-5-------|
A|--22-4-3--22-6-5-4--22-4-3--22-6-5-------|
D|--22-4-3--22-6-5-4--22-4-3--22-6-5-------|


RIFF 1
e|---------------------------|   repeat this a lot of times, 
B|---------------------------|   gradually getting faster.
G|---------------------------|
D|-2-9-10-2-10-9-5~-2--------|
A|-2-9-10-2-10-9-5~-2--------|
D|-2-9-10-2-10-9-5~-2--------|


RIFF 2
e|-------------------------------------------------| repeat ~4 times
B|-------------------------------------------------| 
G|-------------------------------------------------|
D|--5p2--3--2—9h10p9h10--2-2-3-3-2-9h10p9h10-------|
A|--5p2--3--2—9h10p9h10--2-2-3-3-2-9h10p9h10-------|
D|--5p2--3--2—9h10p9h10--2-2-3-3-2-9h10p9h10-------|


Then in come the vocals
RIFF 3
e|------------------------------------|
B|------------------------------------|
G|------------------------------------|
D|---2--3-3-2-2/9-2-------------------|
A|---2--3-3-2-2/9-2-------------------|
D|---2--3-3-2-2/9-2-------------------|

Im not too sure about this bit but its something like that.......






RIFF 4
e|-------------------------------------------------|
B|-------------------------------------------------|
G|-------------------------------------------------|
D|---2-5-2-3—2h5-2-3—-2-5-2-3—2h3-9-8-7------------|
A|---2-5-2-3—2h5-2-3—-2-5-2-3—2h3-9-8-7------------|
D|---2-5-2-3—2h5-2-3—-2-5-2-3—2h3-9-8-7------------|

I am lord, I take command....








e|-------------------------------|  repeat x2
B|-------------------------------|
G|-------------------------------|
D|--2--5--3--4--2--5--3--6-5-4---|
A|--2--5--3--4--2--5--3--6-5-4---|
D|--2--5--3--4--2--5--3--6-5-4---|

Then

e|----------------------------------------------|  repeat x2
B|----------------------------------------------|
G|----------------------------------------------|
D|----------------------------------------------|
A|-----------------------6-----5p4-2~-----------|
D|---2---4-7-9--/14--13--6--xx-5p4—2~-6--11--12-|



e|----------------------------------------------| repeat x2 or 3(not 
B|----------------------------------------------| sure)
G|----------------------------------------------|
D|--5--2~--2-9--5--2--2-2-3—3/6--2--2-9--5--2---|
A|--5--2~--2-9--5--2--2-2-3—3/6--2--2-9--5--2---|
D|--5--2~--2-9--5--2--2-2-3—3/6--2--2-9--5--2---|



e|---------------------------------|  repeat this during the solos
B|---------------------------------|
G|---------------------------------|
D|---------------------------------|
A|---------------------------------|
D|---6h7-14--2-2-2-2-2-2-2-3-6-7---|


Текст, аккорды и табулатура для песни "Fall From Grace", исполняет "Morbid Angel".
Используемые в песне аккорды можно найти в разделе Как брать аккорды. Аккорды для шестиструнной гитары. Другие песни можно найти на нашем сайте, воспользовавшись алфавитным указателем вверху страницы.


 
Ошибка в тексте? Выделите ошибку и нажмите Ctrl+Enter