From: John McCarron 
Feel free to give me some feedback on it--I still have to double check the ending.

Solo to:  Dominate
                                                                     )  )  )
                         h  h    Tp  p  p h  h    Tp  p  p h  h     /  /  /
|--h-p----------------6-7-10-11-14-11-10-7-10-11-14-11-10-7-10-11--18-18-18-|
|-6-7-6---------6-7-9-------------------------------------------------------|
|-------7~--7-8-------------------------------------------------------------|
|---------------------------------------------------------------------------|
|---------------------------------------------------------------------------|
|---------------------------------------------------------------------------|

          p  p  h  h  p  p     Tp  p   Tp  h  h    Tp  p  p  h  p
|-16-18-19-18-16-18-19-18-16--14-11-7-14-11-12-14-19-14-12-11-12-11----
|-------------------------------------------------------------------12-
|----------------------------------------------------------------------
|----------------------------------------------------------------------
|----------------------------------------------------------------------
|----------------------------------------------------------------------

   h  p        h  p        h  p     a.h.
-11-12-11----11-12-11----11-12-11---11~~-|---------h--h----Tp--p--p-h--h---
----------12----------12---------12------|--h-h---9-11-12-16-12-11-9-11-12-
-----------------------------------------|-8-9-11--------------------------
-----------------------------------------|---------------------------------
-----------------------------------------|---------------------------------
-----------------------------------------|---------------------------------

--Tp--p--p-h--h----Tp--p--p-----------------------------------------------
----12-11-9-11-12-14-12-11-9---h--h--p--p---------------------------------
-----------------------------10-11-13-11-10------h--h----Tp--p--p--h--h---
--------------------------------------------13-12-13-15-17-15-13-12-13-15-
--------------------------------------------------------------------------
--------------------------------------------------------------------------

                                    a.h.     a.h.     a.h.
----------------------------------|--------------------------|
----------------------------------|--------------------------|
--Tp--p--p--h--h----Tp--p--p------|---p--------p--------p----|
-17-15-13-12-13-15-17-15-13-12----|-13-12----13-12----13-12--|
-------------------------------13-|-------13-------13--------|
----------------------------------|--------------------------|


|------------------------------------------------------|
|------------------------------------------------------|
|---------------h----Tp--p-----------------------------|
|-13-14-13-16-13-14-21-16-13-----13-------------h------|
|----------------------------14-----15-14-12--12-13~~~-|
|------------------------------------------------------|

                                p  p           p  p  h  h  p  p
|--------------------------14-19-16-14----14-19-16-14-16-19-16-14------
|--------------------16-17-------------16------------------------------
|-15~~~--------15-16---------------------------------------------------
|--------15-16---------------------------------------------------------
|----------------------------------------------------------------------
|----------------------------------------------------------------------


----------p--p-----------p-------------------|
-----14-19-16-14----14-19-16-14---p--p-------|
--16-------------16-------------16-15-16~~~--|
---------------------------------------------|
---------------------------------------------|
---------------------------------------------|


Текст, аккорды и табулатура для песни "Dominate", исполняет "Morbid Angel".
Используемые в песне аккорды можно найти в разделе Как брать аккорды. Аккорды для шестиструнной гитары. Другие песни можно найти на нашем сайте, воспользовавшись алфавитным указателем вверху страницы.


 
Ошибка в тексте? Выделите ошибку и нажмите Ctrl+Enter