MORBID ANGEL : DOMINATE
from the album Domination
Tuning: 7 string tuned down to A#,D#,G#,C#,F#,A#,D#
Tabs by Mattrey 
comments please to : [email protected]

NOTE: Only the used strings are shown



Riff A

5||-6--7--6-7-9-|
6||-6--7--6-7-9-|
7||-4--5--4-5-7-|
pm  .  .  . .

Riff B

6||---------------------|
7||-5544-5544-4444-7777-|
slightly pm

Riff C

6||-7766-----------6666------6677-66---6666-|
7||------6666-7777------7777--------77------|
slightly pm

Riff D

5||-96-6/7-2-2-2-2-|-96-6/7-2-2-2-2-|-96-6/7-2-2-2-2-|-3/4---3/6-|
6||-96-6/7-2-2-2-2-|-96-6/7-2-2-2-2-|-96-6/7-2-2-2-2-|-3/4---3/6-|
7||-74-4/5-0-0-0-0-|-74-4/5-0-0-0-0-|-74-4/5-0-0-0-0-|-1/2---1/4-|
pm          . . . .           . . . .           . . . .


Riff E

5||--------------------------------------------------|
6||---8-9---8-9---8-11---8-10---8-9--------8888-8888-|
7||-0-----0-----0------0------0-----0-0000-6666-6666-|
there some variations in the rhytm at the ending of this riff listen to the cd

Riff F

5||--------------------------------------------------|
6||---9-10---9-10---9-13---9-12---8-9--------8888-8888-|
7||-0------0------0------0------0-----0-0000-6666-6666-|
there some variations in the rhytm at the ending of this riff listen to the cd

Riff G (rhyth under solo)

5||-96-6/7---------|-----------------|-----------------|---------7-7-|
6||-96-6/7---------|-----------------|-----------------|---------7-7-|
7||-74-4/5-0-0-0-0-|-0-0-0-0-0-0-0-0-|-0-0-0-0-0-0-0-0-|-0-0-0-0-5-5-|


song strucure
A 4 times
B 12 times
C 2 times
B 12 times
C 4 times
D 4 times
E 2 times
D 4 times
E 2 times
F 1 time
E 1 time
G 4 times
A 4 times
B 12 times
C 4 times

solo will follow soon


Текст, аккорды и табулатура для песни "Dominate", исполняет "Morbid Angel".
Используемые в песне аккорды можно найти в разделе Как брать аккорды. Аккорды для шестиструнной гитары. Другие песни можно найти на нашем сайте, воспользовавшись алфавитным указателем вверху страницы.


 
Ошибка в тексте? Выделите ошибку и нажмите Ctrl+Enter