Tuning : Eb Ab Db Gb Bb Eb

e:---2---------2--------2---0---------0--------0---2---------2--------2---0--|
B:-------0--------0-------------0--------0-------------0--------0------------|
G:---------------------------------------------------------------------------|
D:---2------2--------2------2------2--------2------2------2--------2------2--|
A:---------------------------------------------------------------------------|
E:---------------------------------------------------------------------------|


e:----------0---------3---------3--------3---0---------0------------5--------|
B:-------0-----0----------0--------0-------------0--------0-------------0----|
G:-0--------------0------------------------------------------0---------------|
D:----2-------------------------------------------------------------0------0-|
A:--------------------3------3--------3------3------3-----------3------------|
E:---------------------------------------------------------------------------|

                                                        Repeat x1
e:-5------------2------------2---------3---------3------------0--|
B:----0-------------0-----0-----0----------0--------0---------1--|
G:-------0-------------------------0-------------------0------0--|
D:----------0---------------------------------------------0---2--|
A:--------------2------2---------------3------3---------------3--|
E:---------------------------------------------------------------|


e:--0----------5---3---0----------3-------2-------0----------3---2---0-------|
B:------0------------------0----------0-------0-------0------------------0---|
G:---------------------------------------------------------------------------|
D:--2------2---0-------------------------------------------------------------|
A:-----------------3---2------0---3-------2-------3------0---3---2---3------0|
E:---------------------------------------------------------------------------|


e:---3-------2-------0----------5---3---0----------3-------2-------0---------|
B:-------0-------0-------0------------------0----------0-------0-------0-----|
G:---------------------------------------------------------------------------|
D:--------------------------2---0--------------------------------------------|
A:---------------------------------------------0---3-------2-------3------0--|
E:---3-------2-------0--------------3---2------------------------------------|


e:-3---2---0---0------3---------3--------3---5---------5------------2--------|
B:---------1------1-------0--------0-------------0--------0-------------0----|
G:---------0----------------------------------------0--------0---------------|
D:---------2---------------------------------0------------------0---0------0-|
A:-3---2---3----------3------3--------3--------------------------------------|
E:---------------------------------------------------------------------------|


e:----2---------0---3---------3--------3---5---------5------------2----------|
B:-0-----0------1-------0--------0-------------0--------0-------------0-----0|
G:----------0---0------------------------------------------0-----------------|
D:--------------2--------------------------0------0-----------0---0------0---|
A:--------------3---3------3--------3----------------------------------------|
E:---------------------------------------------------------------------------|


e:--2---------0------------0------------------------------------------0------|
B:-----0------1---------------0-----------------1p0--------0---0---------0---|
G:--------0---0------0-----------0--------0----------0-------------0---------|
D:------------2---2-----2-----------2--0-----0----------0--------------------|
A:------------3------------------------------------------------3-------------|
E:---------------------------------------------------------------------------|


e:----------0--------------------0-------------------------------------------|
B:0------------3-----3--------------0-----------------1p0------------0------0|
G:----0-----------0--------------------0--------0----------0-----0-------0---|
D:-------------------------0--------------2--0-----0-------------------------|
A:2------2--------------2-----2-------------------------------0------3-------|
E:---------------------------------------------------------------------------|


e:----------------0------------0---0--------0---------0---0--------0---------|
B:------0------------3---------1------1--------1------3------3--------3------|
G:--0-------0-----------0------0------------------0---0------------------0---|
D:-------------------------0---2---------2------------4---------4------------|
A:------2------2---------------3----------------------5----------------------|
E:---------------------------------------------------------------------------|


e:0---0--------0---------0---0-----------0-----------0-----------0--|
B:1------1--------1------3------3-----------3-----5-----------5-----|
G:0------------------0---0---------0--------------------0-----------|
D:2---------2------------4------------4--------------------6--------|
A:3----------------------5-----------------------7------------------|
E:------------------------------------------------------------------|


Текст, аккорды и табулатура для песни "Desolate Ways", исполняет "Morbid Angel".
Используемые в песне аккорды можно найти в разделе Как брать аккорды. Аккорды для шестиструнной гитары. Другие песни можно найти на нашем сайте, воспользовавшись алфавитным указателем вверху страницы.


 
Ошибка в тексте? Выделите ошибку и нажмите Ctrl+Enter