MOONSPELL-Mephisto
>From the album Irreligious
Tabbed by Nikos Economakis

Intro
 Riff 1
 -----------------------------------------------------------------
 ---------0-------------0------------0-------------0------------5-
 -------5-------------7------------5-------------5-------------5--
 -----7-------------9------------7-------------7-------------7----
 ---0-------------0------------0--------------6------------5------
 -----------------------------------------------------------------
 Play that one time then move to riff 2
 Riff 2
 ---------0-----------0----------0----------0---------5-----------
 ---------0-----------0----------0----------0---------5-----------
 -------5-----------7----------5----------5---------5-------------
 -----7-----------9----------7----------7---------7---------------
 ---0-----------0----------0----------6---------5-----------------
 -----------------------------------------------------------------
  One time again then riff 3
  Riff 3
 -----------0------------------0---------------0-----------------0---------
 ---------0---0--------------0---0-----------8----8------------8---8-------
 -------5-------5----------5-------5--------7--------7--------7------7-----
 -----7-----------7------7-----------7-----9------------9----9----------9--
 ----0-----------------0----------------0------------------0---------------
 --------------------------------------------------------------------------

 -----------0------------------0----------------0-----------------------
 ---------0---0--------------0---0------------0---0-------------9-------
 -------5-------5----------5-------5--------5-------5---------9---9-----
 -----7-----------7------7------------7---7-----------7---6-9-------9-6-
 ---0------------------0----------------6---------------7---------------
 -----------------------------------------------------------------------

 Verses
  Use riff 2 but don't play the d chord int the end,but instead
   -----------------------
   ------------------9----
   ------------------9----
   -----------6---9-------
   --------7--------------
   -----------------------
 Bridge
 Again,use riff 3 but stop suddently in the D#

 Chorus
 ------------------------------------------------------------
 ------------------------------------------------------------
 ----------5-----4h5p4---------------------------------------
 --7--5--7--------------7--5-----6--------6h8-----5----------
 --0--0--0---------------------------------------------------
 ------------------------------------------------------------

 Play again verse,bridge,chorus
  Interlude (with distortion)
 ---------------------------------------------------------------------
 ---------------------------------------------------------------------
 ---------------------------------------------------------------------
 ----7------------5-------3-------2-------2-------3------2------3-----
 ----0--0-0-------0---0-0-0--0-0--0--0-0--3--3-3--3-3-3--3--3-3-3--3-3
 ---------------------------------------------------------------------

 ---------------------------------------------------------------------
 ---------------------------------------------------------------------
 ---------------------------------------------------------------------
 -----10---9---7------2-2---3-3-----2-2-----2-2-2-2-2-----------------
 --0------------------3-3---3-3-----3-3-----3-3-3-3-3-----------------
  (mute many notes)


Текст, аккорды и табулатура для песни "Mephisto", исполняет "Moonspell".
Используемые в песне аккорды можно найти в разделе Как брать аккорды. Аккорды для шестиструнной гитары. Другие песни можно найти на нашем сайте, воспользовавшись алфавитным указателем вверху страницы.


 
Ошибка в тексте? Выделите ошибку и нажмите Ctrl+Enter