The Moody Blues
                              Question


|       |       |       |        |       |       |       |        
|8-------7---5---7-----------5---|5-------------------------------|
|--------------------5---7-------|--------7---5---7---5-----------|
|--------------------------------|------------------------7-------|
|--------------------------------|----------------------------8---|

 |       |       |       |        |       |       |       |        
|8-------7---5---7-----------5---|5-----------5-------------------|
|--------------------5---7-------|----5---7-------7---5-----------|
|--------------------------------|------------------------7-------|
|--------------------------------|----------------------------8---|

 |       |       |       |        |       |       |       |        
|8---8---7---5---7-----------5---|5---5---------------------------|
|--------------------5---7-------|--------7---5---7---5-----------|
|--------------------------------|------------------------7-------|
|--------------------------------|----------------------------8---|

 |       |       |       |        |       |       |       |        
|8---8---7---5---7-----------5---|5-----------5-------------------|
|--------------------5---7-------|----5---7-------7---5-----------|
|--------------------------------|------------------------7---7---|
|--------------------------------|--------------------------------|

 |       |       |       |        |       |       |       |        
|8---------------7---5-----------|--------------------------------|
|------------------------6---7---|--------------------6---7---8---|
|--------------------------------|8-------8-------8---------------|
|--------------------------------|--------------------------------|

 |       |       |       |        |       |       |       |        
|8---------------8---6---5-------|7-------7-------7---------------|
|----------------------------8---|--------------------7-----------|
|--------------------------------|------------------------9-------|
|--------------------------------|----------------------------10--|

 |       |       |       |        |       |       |       |        
|8-------8-------8---7---5-------|--------------------------------|
|--------------------------------|3-------3-------3---5---6---7---|
|--------------------------------|--------------------------------|
|----------------------------3---|--------------------------------|

 |       |       |       |        |       |       |       |        
|8-------8-------8---7---5-------|7-------7-------7---5---4-------|
|--------------------------------|----------------------------5---|
|--------------------------------|--------------------------------|
|----------------------------3---|--------------------------------|

 |       |       |       |        |       |       |       |        
|--------------------------------|--------------------------------|
|5-------5-------5---------------|--------------------2---3---5---|
|--------------------5---2-------|3-------3-------3---------------|
|----------------------------3---|--------------------------------|

 |       |       |       |        |       |       |       |        
|8---8---7---5---7-----------5---|5---5---------------------------|
|--------------------5---7-------|--------7---5---7---5-----------|
|--------------------------------|------------------------7-------|
|--------------------------------|----------------------------8---|

 |       |       |       |        |       |       |       |        
|8---8---7---5---7-----------5---|5---5---------------------------|
|--------------------5---7-------|--------7---5---7---5-----------|
|--------------------------------|------------------------7-------|
|--------------------------------|----------------------------8---|

 |       |       |       |        |       |       |       |        
|8---8---7---5---7-----------5---|5---5---------------------------|
|--------------------5---7-------|--------7---5---7---5-----------|
|--------------------------------|------------------------7-------|
|--------------------------------|----------------------------8---|

 |       |       |       |        |       |       |       |        
|8---8---7---5---7-----------5---|5-----------5-------------------|
|--------------------5---7-------|----5---7-------7---5-----------|
|--------------------------------|------------------------7-------|
|--------------------------------|----------------------------8---|

 |       |       |       |        |       |       |       |        
|8---8---7---5---7-----------5---|5-------------------------------|
|--------------------5---7-------|--------7---5---7---5-----------|
|--------------------------------|------------------------7-------|
|--------------------------------|----------------------------8---|

 |       |       |       |        |       |       |       |        
|8---8---7---5---7---5-----------|--------------------------------|
|------------------------7---5---|--------------------------------|
|--------------------------------|3-------------------------------|
|--------------------------------|--------------------------------|


Текст, аккорды и табулатура для песни "Question", исполняет "Moody Blues".
Используемые в песне аккорды можно найти в разделе Как брать аккорды. Аккорды для шестиструнной гитары. Другие песни можно найти на нашем сайте, воспользовавшись алфавитным указателем вверху страницы.


Слушать онлайн Question


The Moody BluesQuestion на Яндекс.Музыке


 
Ошибка в тексте? Выделите ошибку и нажмите Ctrl+Enter