MONSTER MAGNET - LIZARD_JOHNNY
~~~~~~~~~~~~~~~~~~~~~~~~~~~~~~
This is a very cool song by monstermagnet
It is on a (nameless ep) along with some other great songs

As with so many MM songs tune your guitar down 1/2 step!

Bazzy [[email protected]]

the main chord progression is: (very cool riff listen to the cd!)
   E   A   G   F
e|---|---|---|---|
B|---|---|---|---|
G|-1-|-6-|-4-|-2-|
D|-2-|-7-|-5-|-3-|
A|-2-|-7-|-5-|-3-|
E|-0-|-5-|-3-|-1-|

Then he does:

e|----|----|r|----|
B|-6--|-9--|e|-10-|
G|-6--|-9--|p|-10-|
D|-6--|-9--|e|-10-|
A|-4--|-7--|a|-8--|
E|----|----|t|----|

rythm over solo:
e|---|---|---|
B|---|---|---|
G|-6-|-9-|-8-|
D|-7-|-10|-9-|
A|-7-|-10|-9-|
E|-5-|-8-|-7-|


that's it   i'm sorry no lyrics this time (too lazy to figure them out) if you
got MM lyrics please mail them to me!


Bazzy [[email protected]]


Текст, аккорды и табулатура для песни "Lizard Johnny", исполняет "Monster Magnet".
Используемые в песне аккорды можно найти в разделе Как брать аккорды. Аккорды для шестиструнной гитары. Другие песни можно найти на нашем сайте, воспользовавшись алфавитным указателем вверху страницы.


 
Ошибка в тексте? Выделите ошибку и нажмите Ctrl+Enter