1
e--12----------------------------------------------------------|
b-------15-13-12-13-15-13-12---12/13-|-12-13-15-13-12-13--13/15-|-13-12-10-12-13-12-10-|
g--------------------------------------------------------------|
d--------------------------------------------------------------|  X2
a-------------------------------0------------------------------|
e--------------------------------------------------------------|

2
e-------------------|
b--10/12---10-12-13-|
g--0----------------|
d-------------------|
a-------------------|
e-------------------|
H7

Em            C         D           G 
Как на черный Ерек , да на широкий берег
D                   G      H7
Ехали казаки сорок тысяч лошадей
И покрылся берег ипокрылся берег
Сотнями изрубленых иссеченыхлюдей

Любо братцы , любо .Любо братцы , жить.
С нашим атаманом не приходится тужить.

А первая пуля , а первая пуля
Первая пуля попала в коня
А вторая пуля , а вторая пуля
Вторая пуля в сердце ранила меня

Любо братцы , любо .Любо братцы , жить.
С нашим атаманом не приходится тужить.

e------------12-|--10--8-7-8-10-|-------10-10-8-7-------------7-|
b--9-9-9-9-9--------|-7-7-7-----------10-8-7-8-10---|
g---------------------------------------|
d---------------------------------------|
a---------------------------------------|
e---------------------------------------|

Атаман узнает , кого не хватает
Эскадрон пополнит и забудет про меня
Жалко только волюшки , да во широком полюшке
Солнышка горячего , да верного коня.

Любо братцы , любо .Любо братцы , жить.
С нашим атаманом не приходится тужить.


Текст, аккорды и табулатура для песни "Любо, братцы, любо", исполняет "Монгол Шуудан".
Используемые в песне аккорды можно найти в разделе Как брать аккорды. Аккорды для шестиструнной гитары. Другие песни можно найти на нашем сайте, воспользовавшись алфавитным указателем вверху страницы.


 
Ошибка в тексте? Выделите ошибку и нажмите Ctrl+Enter