Molotov
Porque no te haces para? alla al mas alla.....
Donde Jugaran las niсаs?
Tabbed by Irwin Alvarado
[email protected]
Army Archive Bass Tabber


Riff 1

G|-----------------|
D|*---------------*|
A|*-----2---2---3-*|
D|--2-3---3---3----|

Chorus

G|-------------------------|-----------------|
D|*------------------------|----------------*|
A|*------------------------|-5--------------*|
D|*-0----0-3----3-5---5-3-5|-0--0-------0-3-0|

Riff2

G|----------------|
D|*--------------*|
A|*-----2------3-*|
D|--2-3----3-4----|

Riff3

G|---------------|
D|*-------------*|
A|*-------------*|
D|-0-0--0-0-0-0--|


For coments or mistakes email me please.

Riff2 and 3 are variations of Riff 1. Listen to the song

PORQUE NO TE HACES PARA ALLA AL MAS ALLA?, A DONDE PUTOS??? AL MAS ALLA!!!!


Текст, аккорды и табулатура для песни "Porque No Te Haces Para Alla Al Mas Alla", исполняет "Molotov".
Используемые в песне аккорды можно найти в разделе Как брать аккорды. Аккорды для шестиструнной гитары. Другие песни можно найти на нашем сайте, воспользовавшись алфавитным указателем вверху страницы.


 
Ошибка в тексте? Выделите ошибку и нажмите Ctrl+Enter