********************************************************************************
* Grupo: Molotov                *                 *                            *
* Cancion: NoKO                 *   WWW.ODDITY.TK * WWW.ILLSANE.CJB.NET        *
* Disco: DANCE AND DENSE DENSO  *                 *                            *
********************************************************************************
INTRO/VERSO
Madre en donde...
e|---------------------------------------|
B|---------------------------------------|
G|---------------------------------------|
D|--9------------------------------------|
A|--9- VARIAS VECES ---------------------|
E|--7------------------------------------|
 pm..

B)

e|---------------------------------------|
B|---------------------------------------|
G|---------------------------------------|
D|------9---9-9----9---9-----------------|
A|-------------------------5-5-5-7-5-----|
E|-7-7---7-----7-------------------------|
 pm. .   .     . 

Coro

e|---------------------------------------|
B|---------------------------------------|
G|---------------------------------------|
D|--9-9-7-9-9-7-9---7-7-9-7--------------|
A|--9-9-7-9-9-7-9---5-5-7-5--------------|
E|--7-7-5-7-7-5-7------------------------|

HAY UNA PARTE QUE ES IGUAL QUE LA PARTE B
PERO SUBE 3 TRASTES
  02:05
e|---------------------------------|----------------|
B|---------------------------------|----------------|
G|---------------------------------|----------------|
D|--------12----12-12------12---12-|----------------|
A|---------------------------------|---8-8-8-10-8---|
E|--10-10----10--------10----------|----------------|
  3 VECES Y LA CUARTA TERMINA EN:

e|--------------|
B|--------------|
G|--------------|
D|--------------|
A|--5-5-5-4--3--|
E|--------------|

2:27
e|---------------------------------------|
B|---------------------------------------|
G|---------------------------------------|
D|--9-9--9--9--9-9--9--9-9--7-7-7-9-7----|
A|--9-9--9--9--9-9--9--9-9--5-5-5-7-9----|
E|--7-7--7--7--7-7--7--7-7---------------|
 pm . .     .       .

Azi acaba:

e|---------------------------------------|
B|---------------------------------------|
G|---------------------------------------|
D|---------------------------------------|
A|--2-0-----2-0-----CADA VEZ MAS RAPIDO--|
E|------3-2-----3-2----------------------|

e|---------------------------------------|
B|---------------------------------------|
G|---------------------------------------|
D|--7----9-9-7-9----2-----9-9-7-9--------|
A|--7----9-9-7-9----2-----9-9-7-9--------|
E|--5----7-7-5-7----0-----7-7-5-7--------|


Es la de NOKO ESTA CHIDA  y VISITEN WWW.ODDITY.TK

Atte:

CaCHoRRo


Текст, аккорды и табулатура для песни "Noko", исполняет "Molotov".
Используемые в песне аккорды можно найти в разделе Как брать аккорды. Аккорды для шестиструнной гитары. Другие песни можно найти на нашем сайте, воспользовавшись алфавитным указателем вверху страницы.


 
Ошибка в тексте? Выделите ошибку и нажмите Ctrl+Enter