Moist - Theme From Cola
Tabbed By: tza
EMail: [email protected]
Creature


< > = harmonics


Intro:

Fig. 1

e-----------------------------------------
b------------------0-------------------0--
g---------------0----------------0--
d----------------------------------- x4
a-2--2--2-------------2--2--2-------------
e-0--0--0-------------0--0--0-------------

Verses: 

Riff A:

e-----------------------------------------
b-----------------------------------------
g----------3-------------------2----------
d-------4-------------------5--------5---- x4
a----4-------------------2--------------2-
e-2---------------2---3-------------------

Interlude:

gtr. 2

e---------------------------------------------
b-0--0--0--0--0--0--0--0--0--0--0--0--0--0--0-
g---------------------------------------------
d--------------------------------------------- x2
a---------------------------------------------
e---------------------------------------------

gtr. 1

e----------------------------------------------
b----------------------------------------------
g----------------------------------------------
d-4----4--------0--0--0--4----4--------0--0--0- x2
a-2----2--5-----0--0--0--2----2--5-----0--0--0-
e---------3----------------------3-------------

Chorus:

e-----------------------------------------------------------------
b-----------------------------------------------------------------
g----------------------------------------------------5--5--5---54
d-4---4-----0-0-0--4---4-----0-0-0--4---4-----0-0-0--5--5--5---54
a-2---2-5---0-0-0--2---2-5---0-0-0--2---2-5---0-0-0--3--3--3---32
e-------3----------------3----------------3-----------------------

e-----------------------------------------------------------------
b-----------------------------------------------------------------
g-----------------------------------------------------------------
d-4---4-----0-0-0--4---4-----0-0-0--4---4-----0-0-0----2-----4----
a-2---2-5---0-0-0--2---2-5---0-0-0--2---2-5---0-0-0--4---4-5---5--
e-------3----------------3----------------3-----------------------

Solo:

e-----------------------------------------------------------------
b-----------------------------------------------------------------
g-------3--2------0---------3--2----0---2---0---------------------
d-2------------------2-------------------------------------2/--
a-----------------------------------------------------------------
e-----------------------------------------------------------------

w/ pm
e-----------------------------------------------------------------
b-----------------------------------------------------------------
g-----------------------------------------------------------------
d-14-14-14-14-14--14-14--14-14-14-14-14-14-14-14-14-14-14-14-14---
a-----------------------------------------------------------------
e-----------------------------------------------------------------

w/ wah-wah

e-----------------------------------------------------------------
b-----------------------------------------------------------------
g---------------0--2--2b~~~-2b~~~-2--0--2p0-----0-------0-2p0-----
d-14-14-14-14-------------------------------2p0----2----------2p0-
a-----------------------------------------------------------------
e-----------------------------------------------------------------

e--------------------0--0--3b~~~-3b---------12--------------------
b-3p0---------3b~~~~-0--0------------5/12-------15~~~~~~~~~~~-----
g-----2p0---------------------------------------------------------
d---------2p0-----------------------------------------------------
a-----------------------------------------------------------------
e-----------------------------------------------------------------

e-----------------------------------------------------------------
b-15---15---15-----15---15----------------------------------------
g-14b--14b--14b----14b--14b----12---------------------------------
d-----------------------------------14p12----12-------------------
a-----------------------------------------14-----14p12-14-12------
e------------------------------------------------------------15-12

Outro:

e-----------------------------------------------------------------
b-----------------------------------------------------------------
g-5---5-5-5-5-5-5-5-5-5-5-5-5-5-5-5-5-5-5-5-5-5-5-5-5-5-5-5-5-4---
d-5---5-5-5-5-5-5-5-5-5-5-5-5-5-5-5-5-5-5-5-5-5-5-5-5-5-5-5-5-4---
a-3---3-3-3-3-3-3-3-3-3-3-3-3-3-3-3-3-3-3-3-3-3-3-3-3-3-3-3-3-2---
e---------------------------------------------------------------0-


that’s all

trevor jones
[email protected]


Текст, аккорды и табулатура для песни "Theme From Cola", исполняет "Moist".
Используемые в песне аккорды можно найти в разделе Как брать аккорды. Аккорды для шестиструнной гитары. Другие песни можно найти на нашем сайте, воспользовавшись алфавитным указателем вверху страницы.


 
Ошибка в тексте? Выделите ошибку и нажмите Ctrl+Enter